  0
SECTION
  2
HEADER
  9
$ACADVER
  1
AC1012
  9
$DWGCODEPAGE
  3
ANSI_1252
  9
$INSBASE
 10
0.0
 20
0.0
 30
0.0
  9
$EXTMIN
 10
-0.4206228165985522
 20
-309.8789134509752
 30
-0.0130609255131731
  9
$EXTMAX
 10
6892.22040371348
 20
3836.946787288631
 30
214.0130629186044
  9
$LIMMIN
 10
0.0
 20
0.0
  9
$LIMMAX
 10
420.0
 20
297.0
  9
$ORTHOMODE
 70
     1
  9
$REGENMODE
 70
     1
  9
$FILLMODE
 70
     1
  9
$QTEXTMODE
 70
     0
  9
$MIRRTEXT
 70
     1
  9
$DRAGMODE
 70
     2
  9
$LTSCALE
 40
1.0
  9
$OSMODE
 70
  2559
  9
$ATTMODE
 70
     1
  9
$TEXTSIZE
 40
2.5
  9
$TRACEWID
 40
1.0
  9
$TEXTSTYLE
  7
STANDARD
  9
$CLAYER
  8
HATCH
  9
$CELTYPE
  6
BYLAYER
  9
$CECOLOR
 62
   256
  9
$CELTSCALE
 40
1.0
  9
$DELOBJ
 70
     1
  9
$DISPSILH
 70
     0
  9
$DIMSCALE
 40
1.0
  9
$DIMASZ
 40
2.5
  9
$DIMEXO
 40
0.625
  9
$DIMDLI
 40
3.75
  9
$DIMRND
 40
0.0
  9
$DIMDLE
 40
0.0
  9
$DIMEXE
 40
1.25
  9
$DIMTP
 40
0.0
  9
$DIMTM
 40
0.0
  9
$DIMTXT
 40
2.5
  9
$DIMCEN
 40
2.5
  9
$DIMTSZ
 40
0.0
  9
$DIMTOL
 70
     0
  9
$DIMLIM
 70
     0
  9
$DIMTIH
 70
     0
  9
$DIMTOH
 70
     0
  9
$DIMSE1
 70
     0
  9
$DIMSE2
 70
     0
  9
$DIMTAD
 70
     1
  9
$DIMZIN
 70
     8
  9
$DIMBLK
  1

  9
$DIMASO
 70
     1
  9
$DIMSHO
 70
     1
  9
$DIMPOST
  1

  9
$DIMAPOST
  1

  9
$DIMALT
 70
     0
  9
$DIMALTD
 70
     3
  9
$DIMALTF
 40
0.03937007874016
  9
$DIMLFAC
 40
1.0
  9
$DIMTOFL
 70
     1
  9
$DIMTVP
 40
0.0
  9
$DIMTIX
 70
     0
  9
$DIMSOXD
 70
     0
  9
$DIMSAH
 70
     0
  9
$DIMBLK1
  1

  9
$DIMBLK2
  1

  9
$DIMSTYLE
  2
ISO-25
  9
$DIMCLRD
 70
     0
  9
$DIMCLRE
 70
     0
  9
$DIMCLRT
 70
     0
  9
$DIMTFAC
 40
1.0
  9
$DIMGAP
 40
0.625
  9
$DIMJUST
 70
     0
  9
$DIMSD1
 70
     0
  9
$DIMSD2
 70
     0
  9
$DIMTOLJ
 70
     0
  9
$DIMTZIN
 70
     8
  9
$DIMALTZ
 70
     0
  9
$DIMALTTZ
 70
     0
  9
$DIMFIT
 70
     3
  9
$DIMUPT
 70
     0
  9
$DIMUNIT
 70
     2
  9
$DIMDEC
 70
     2
  9
$DIMTDEC
 70
     2
  9
$DIMALTU
 70
     2
  9
$DIMALTTD
 70
     3
  9
$DIMTXSTY
  7
STANDARD
  9
$DIMAUNIT
 70
     0
  9
$LUNITS
 70
     2
  9
$LUPREC
 70
     4
  9
$SKETCHINC
 40
1.0
  9
$FILLETRAD
 40
10.0
  9
$AUNITS
 70
     0
  9
$AUPREC
 70
     0
  9
$MENU
  1
.
  9
$ELEVATION
 40
0.0
  9
$PELEVATION
 40
0.0
  9
$THICKNESS
 40
0.0
  9
$LIMCHECK
 70
     0
  9
$BLIPMODE
 70
     0
  9
$CHAMFERA
 40
10.0
  9
$CHAMFERB
 40
10.0
  9
$CHAMFERC
 40
20.0
  9
$CHAMFERD
 40
0.0
  9
$SKPOLY
 70
     0
  9
$TDCREATE
 40
2452626.558859838
  9
$TDUPDATE
 40
2452776.497713310
  9
$TDINDWG
 40
0.0051460648
  9
$TDUSRTIMER
 40
0.0051460648
  9
$USRTIMER
 70
     1
  9
$ANGBASE
 50
0.0
  9
$ANGDIR
 70
     0
  9
$PDMODE
 70
     0
  9
$PDSIZE
 40
0.0
  9
$PLINEWID
 40
0.0
  9
$COORDS
 70
     2
  9
$SPLFRAME
 70
     0
  9
$SPLINETYPE
 70
     6
  9
$SPLINESEGS
 70
     8
  9
$ATTDIA
 70
     0
  9
$ATTREQ
 70
     1
  9
$HANDLING
 70
-16383
  9
$HANDSEED
  5
231
  9
$SURFTAB1
 70
     6
  9
$SURFTAB2
 70
     6
  9
$SURFTYPE
 70
     6
  9
$SURFU
 70
     6
  9
$SURFV
 70
     6
  9
$UCSNAME
  2

  9
$UCSORG
 10
0.0
 20
0.0
 30
0.0
  9
$UCSXDIR
 10
1.0
 20
0.0
 30
0.0
  9
$UCSYDIR
 10
0.0
 20
1.0
 30
0.0
  9
$PUCSNAME
  2

  9
$PUCSORG
 10
0.0
 20
0.0
 30
0.0
  9
$PUCSXDIR
 10
1.0
 20
0.0
 30
0.0
  9
$PUCSYDIR
 10
0.0
 20
1.0
 30
0.0
  9
$USERI1
 70
     0
  9
$USERI2
 70
     0
  9
$USERI3
 70
     0
  9
$USERI4
 70
     0
  9
$USERI5
 70
     0
  9
$USERR1
 40
0.0
  9
$USERR2
 40
0.0
  9
$USERR3
 40
0.0
  9
$USERR4
 40
0.0
  9
$USERR5
 40
0.0
  9
$WORLDVIEW
 70
     1
  9
$SHADEDGE
 70
     3
  9
$SHADEDIF
 70
    70
  9
$TILEMODE
 70
     1
  9
$MAXACTVP
 70
    64
  9
$PINSBASE
 10
0.0
 20
0.0
 30
0.0
  9
$PLIMCHECK
 70
     0
  9
$PEXTMIN
 10
0.0
 20
0.0
 30
0.0
  9
$PEXTMAX
 10
0.0
 20
0.0
 30
0.0
  9
$PLIMMIN
 10
0.0
 20
0.0
  9
$PLIMMAX
 10
12.0
 20
9.0
  9
$UNITMODE
 70
     0
  9
$VISRETAIN
 70
     1
  9
$PLINEGEN
 70
     0
  9
$PSLTSCALE
 70
     1
  9
$TREEDEPTH
 70
  3020
  9
$PICKSTYLE
 70
     1
  9
$CMLSTYLE
  2
STANDARD
  9
$CMLJUST
 70
     0
  9
$CMLSCALE
 40
20.0
  9
$SAVEIMAGES
 70
     1
  0
ENDSEC
  0
SECTION
  2
CLASSES
  0
CLASS
  1
ACDBDICTIONARYWDFLT
  2
AcDbDictionaryWithDefault
  3
AutoCAD 2000
 90
    32768
280
     0
281
     0
  0
CLASS
  1
ACDBPLACEHOLDER
  2
AcDbPlaceHolder
  3
AutoCAD 2000
 90
    32768
280
     0
281
     0
  0
CLASS
  1
LAYOUT
  2
AcDbLayout
  3
AutoCAD 2000
 90
    32768
280
     0
281
     0
  0
CLASS
  1
LONG_TRANSACTION
  2
AcDbLongTransaction
  3
AutoCAD 2000
 90
    32768
280
     0
281
     0
  0
CLASS
  1
LWPOLYLINE
  2
AcDbPolyline
  3
AutoCAD 2000
 90
    32768
280
     0
281
     1
  0
CLASS
  1
HATCH
  2
AcDbHatch
  3
AutoCAD 2000
 90
    32768
280
     0
281
     1
  0
CLASS
  1
XRECORD
  2
AcDbXrecord
  3
AutoCAD 2000
 90
    32768
280
     0
281
     0
  0
CLASS
  1
LONG_TRANSACTION
  2
AcDbLongTransaction
  3
AutoCAD 2000
 90
    32768
280
     0
281
     0
  0
CLASS
  1
LWPOLYLINE
  2
AcDbPolyline
  3
AutoCAD 2000
 90
    32768
280
     0
281
     1
  0
CLASS
  1
HATCH
  2
AcDbHatch
  3
AutoCAD 2000
 90
    32768
280
     0
281
     1
  0
CLASS
  1
XRECORD
  2
AcDbXrecord
  3
AutoCAD 2000
 90
    32768
280
     0
281
     0
  0
CLASS
  1
LONG_TRANSACTION
  2
AcDbLongTransaction
  3
AutoCAD 2000
 90
    32768
280
     0
281
     0
  0
CLASS
  1
LWPOLYLINE
  2
AcDbPolyline
  3
AutoCAD 2000
 90
    32768
280
     0
281
     1
  0
CLASS
  1
HATCH
  2
AcDbHatch
  3
AutoCAD 2000
 90
    32768
280
     0
281
     1
  0
CLASS
  1
XRECORD
  2
AcDbXrecord
  3
AutoCAD 2000
 90
    32768
280
     0
281
     0
  0
CLASS
  1
DICTIONARYVAR
  2
AcDbDictionaryVar
  3
AutoCAD 2000
 90
    32768
280
     0
281
     0
  0
CLASS
  1
SORTENTSTABLE
  2
AcDbSortentsTable
  3
AutoCAD 2000
 90
    32768
280
     0
281
     0
  0
CLASS
  1
LONG_TRANSACTION
  2
AcDbLongTransaction
  3
AutoCAD 2000
 90
    32768
280
     0
281
     0
  0
CLASS
  1
LWPOLYLINE
  2
AcDbPolyline
  3
AutoCAD 2000
 90
    32768
280
     0
281
     1
  0
CLASS
  1
HATCH
  2
AcDbHatch
  3
AutoCAD 2000
 90
    32768
280
     0
281
     1
  0
CLASS
  1
XRECORD
  2
AcDbXrecord
  3
AutoCAD 2000
 90
    32768
280
     0
281
     0
  0
ENDSEC
  0
SECTION
  2
TABLES
  0
TABLE
  2
VPORT
  5
8
330
0
100
AcDbSymbolTable
 70
     2
  0
VPORT
  5
1F4
330
8
100
AcDbSymbolTableRecord
100
AcDbViewportTableRecord
  2
*ACTIVE
 70
     0
 10
0.0
 20
0.0
 11
1.0
 21
1.0
 12
3445.899890448441
 22
1763.533936918828
 13
0.0
 23
0.0
 14
10.0
 24
10.0
 15
10.0
 25
10.0
 16
0.0
 26
0.0
 36
1.0
 17
0.0
 27
0.0
 37
0.0
 40
4718.035585111133
 41
1.47227533460803
 42
50.0
 43
0.0
 44
0.0
 50
0.0
 51
0.0
 71
     0
 72
   100
 73
     1
 74
     3
 75
     0
 76
     1
 77
     0
 78
     0
  0
ENDTAB
  0
TABLE
  2
LTYPE
  5
5
330
0
100
AcDbSymbolTable
 70
     1
  0
LTYPE
  5
14
330
5
100
AcDbSymbolTableRecord
100
AcDbLinetypeTableRecord
  2
BYBLOCK
 70
     0
  3

 72
    65
 73
     0
 40
0.0
  0
LTYPE
  5
15
330
5
100
AcDbSymbolTableRecord
100
AcDbLinetypeTableRecord
  2
BYLAYER
 70
     0
  3

 72
    65
 73
     0
 40
0.0
  0
LTYPE
  5
16
330
5
100
AcDbSymbolTableRecord
100
AcDbLinetypeTableRecord
  2
CONTINUOUS
 70
     0
  3
Solid line
 72
    65
 73
     0
 40
0.0
  0
ENDTAB
  0
TABLE
  2
LAYER
  5
2
330
0
100
AcDbSymbolTable
 70
     5
  0
LAYER
  5
10
330
2
100
AcDbSymbolTableRecord
100
AcDbLayerTableRecord
  2
0
 70
     0
 62
     7
  6
CONTINUOUS
  0
LAYER
  5
5D
330
2
100
AcDbSymbolTableRecord
100
AcDbLayerTableRecord
  2
OBJECT
 70
     0
 62
     7
  6
CONTINUOUS
  0
LAYER
  5
5E
330
2
100
AcDbSymbolTableRecord
100
AcDbLayerTableRecord
  2
SAFETY
 70
     0
 62
     7
  6
CONTINUOUS
  0
LAYER
  5
11B
330
2
100
AcDbSymbolTableRecord
100
AcDbLayerTableRecord
  2
TEKST
 70
     0
 62
     7
  6
CONTINUOUS
  0
LAYER
  5
15A
330
2
100
AcDbSymbolTableRecord
100
AcDbLayerTableRecord
  2
HATCH
 70
     0
 62
     7
  6
CONTINUOUS
  0
ENDTAB
  0
TABLE
  2
STYLE
  5
3
330
0
100
AcDbSymbolTable
 70
     3
  0
STYLE
  5
11
330
3
100
AcDbSymbolTableRecord
100
AcDbTextStyleTableRecord
  2
STANDARD
 70
     0
 40
0.0
 41
1.0
 50
0.0
 71
     0
 42
2.5
  3
txt
  4

  0
STYLE
  5
5F
330
3
100
AcDbSymbolTableRecord
100
AcDbTextStyleTableRecord
  2
STYLE1
 70
     0
 40
100.0
 41
1.0
 50
0.0
 71
     0
 42
75.0
  3
romans.shx
  4

  0
STYLE
  5
60
330
3
100
AcDbSymbolTableRecord
100
AcDbTextStyleTableRecord
  2
STYLE4
 70
     0
 40
3.0
 41
1.0
 50
0.0
 71
     0
 42
3.0
  3
romant.shx
  4

  0
ENDTAB
  0
TABLE
  2
VIEW
  5
6
330
0
100
AcDbSymbolTable
 70
     0
  0
ENDTAB
  0
TABLE
  2
UCS
  5
7
330
0
100
AcDbSymbolTable
 70
     0
  0
ENDTAB
  0
TABLE
  2
APPID
  5
9
330
0
100
AcDbSymbolTable
 70
     3
  0
APPID
  5
12
330
9
100
AcDbSymbolTableRecord
100
AcDbRegAppTableRecord
  2
ACAD
 70
     0
  0
APPID
  5
62
330
9
100
AcDbSymbolTableRecord
100
AcDbRegAppTableRecord
  2
AVE_FINISH
 70
     0
  0
APPID
  5
112
330
9
100
AcDbSymbolTableRecord
100
AcDbRegAppTableRecord
  2
CONTENTBLOCKICON
 70
     0
  0
ENDTAB
  0
TABLE
  2
DIMSTYLE
  5
A
330
0
100
AcDbSymbolTable
 70
     2
  0
DIMSTYLE
105
27
330
A
100
AcDbSymbolTableRecord
100
AcDbDimStyleTableRecord
  2
ISO-25
 70
     0
  3

  4

  5

  6

  7

 40
1.0
 41
2.5
 42
0.625
 43
3.75
 44
1.25
 45
0.0
 46
0.0
 47
0.0
 48
0.0
140
2.5
141
2.5
142
0.0
143
0.03937007874016
144
1.0
145
0.0
146
1.0
147
0.625
 71
     0
 72
     0
 73
     0
 74
     0
 75
     0
 76
     0
 77
     1
 78
     8
170
     0
171
     3
172
     1
173
     0
174
     0
175
     0
176
     0
177
     0
178
     0
270
     2
271
     2
272
     2
273
     2
274
     3
340
11
275
     0
280
     0
281
     0
282
     0
283
     0
284
     8
285
     0
286
     0
287
     3
288
     0
  0
DIMSTYLE
105
61
330
A
100
AcDbSymbolTableRecord
100
AcDbDimStyleTableRecord
  2
STAND-1
 70
     0
  3

  4

  5

  6

  7

 40
10.0
 41
10.0
 42
2.0
 43
7.0
 44
2.0
 45
0.0
 46
0.0
 47
0.0
 48
0.0
140
100.0
141
0.09
142
0.0
143
25.4
144
1.0
145
0.0
146
1.0
147
3.0
 71
     0
 72
     0
 73
     0
 74
     0
 75
     0
 76
     0
 77
     1
 78
     8
170
     0
171
     2
172
     1
173
     0
174
     0
175
     0
176
     1
177
     1
178
     1
270
     2
271
     1
272
     0
273
     2
274
     2
340
5F
275
     0
280
     0
281
     0
282
     0
283
     1
284
     0
285
     0
286
     0
287
     3
288
     0
  0
ENDTAB
  0
TABLE
  2
BLOCK_RECORD
  5
1
330
0
100
AcDbSymbolTable
 70
     5
  0
BLOCK_RECORD
  5
1F
102
{ACAD_XDICTIONARY
360
C1
102
}
330
1
100
AcDbSymbolTableRecord
100
AcDbBlockTableRecord
  2
*MODEL_SPACE
  0
BLOCK_RECORD
  5
50
102
{ACAD_XDICTIONARY
360
C3
102
}
330
1
100
AcDbSymbolTableRecord
100
AcDbBlockTableRecord
  2
*PAPER_SPACE
  0
BLOCK_RECORD
  5
CF
330
1
100
AcDbSymbolTableRecord
100
AcDbBlockTableRecord
  2
ADKA
1001
ACAD
1000
DesignCenter Data
1002
{
1070
     1
1070
     4
1002
}
1001
CONTENTBLOCKICON
1071
        0
1004
28000000200000002000000001000800000000000004000000000000000000000000000000000000000000004000000080000000FF000000002000004020000080200000FF200000004000004040000080400000FF400000006000004060000080600000FF600000008000004080000080800000FF80000000A0000040A000
1004
0080A00000FFA0000000C0000040C0000080C00000FFC0000000FF000040FF000080FF0000FFFF0000000020004000200080002000FF002000002020004020200080202000FF202000004020004040200080402000FF402000006020004060200080602000FF602000008020004080200080802000FF80200000A0200040A0
1004
200080A02000FFA0200000C0200040C0200080C02000FFC0200000FF200040FF200080FF2000FFFF2000000040004000400080004000FF004000002040004020400080204000FF204000004040004040400080404000FF404000006040004060400080604000FF604000008040004080400080804000FF80400000A0400040
1004
A0400080A04000FFA0400000C0400040C0400080C04000FFC0400000FF400040FF400080FF4000FFFF4000000060004000600080006000FF006000002060004020600080206000FF206000004060004040600080406000FF406000006060004060600080606000FF606000008060004080600080806000FF80600000A06000
1004
40A0600080A06000FFA0600000C0600040C0600080C06000FFC0600000FF600040FF600080FF6000FFFF6000000080004000800080008000FF008000002080004020800080208000FF208000004080004040800080408000FF408000006080004060800080608000FF608000008080004080800080808000FF80800000A080
1004
0040A0800080A08000FFA0800000C0800040C0800080C08000FFC0800000FF800040FF800080FF8000FFFF80000000A0004000A0008000A000FF00A0000020A0004020A0008020A000FF20A0000040A0004040A0008040A000FF40A0000060A0004060A0008060A000FF60A0000080A0004080A0008080A000FF80A00000A0
1004
A00040A0A00080A0A000FFA0A00000C0A00040C0A00080C0A000FFC0A00000FFA00040FFA00080FFA000FFFFA0000000C0004000C0008000C000FF00C0000020C0004020C0008020C000FF20C0000040C0004040C0008040C000FF40C0000060C0004060C0008060C000FF60C0000080C0004080C0008080C000FF80C00000
1004
A0C00040A0C00080A0C000FFA0C00000C0C00040C0C00080C0C000FFC0C00000FFC00040FFC00080FFC000FFFFC0000000FF004000FF008000FF00FF00FF000020FF004020FF008020FF00FF20FF000040FF004040FF008040FF00FF40FF000060FF004060FF008060FF00FF60FF000080FF004080FF008080FF00FF80FF00
1004
00A0FF0040A0FF0080A0FF00FFA0FF0000C0FF0040C0FF0080C0FF00FFC0FF0000FFFF0040FFFF0080FFFF00FFFFFF0000000000000000000000000000000000000000000000000000000000000000000000000000000000000000000000000000000000000000000000000000000000000000000000000000000000000000
1004
00000000000000000000000000000000000000000000000000000000000000000000000000000000000000000000000000000000000000000000000000000000000000000000000000000000000000000000000000000000000000000000000000000000000000000000000000000000000000000000000000000000000000
1004
00000000000000000000000000000000000000000000000000000000000000000000000000000000000000000000000000000000000000000000000000000000FFFFFFFFFFFFFFFFFFFFFF00000000000000000000000000000000000000FFFF0000000000000000000000FFFF000000000000FFFFFFFFFFFFFFFFFFFFFF00
1004
0000000000000000000000000000FFFF00000000FF000000000000000000000000000000000000000000000000000000FF000000FF000000000000000000000000000000000000000000000000000000FF000000FF00000000000000000000000000000000000000000000000000000000FF0000FF0000000000000000FFFF
1004
FFFFFFFFFFFFFFFFFFFFFFFF000000000000FF0000FF0000000000000000FF000000000000000000000000FF000000000000FF0000FF0000000000000000FF000000000000000000000000FF000000000000FF0000FF0000000000000000FFFFFFFFFFFFFFFFFFFFFFFFFFFF000000000000FF0000FF000000000000000000
1004
00000000000000000000000000000000000000FF0000FF000000000000000000000000000000000000000000000000000000FF000000FF000000000000000000000000000000000000000000000000000000FF000000FFFFFFFFFFFFFFFFFFFFFF000000000000000000000000000000FFFF00000000000000000000000000
1004
0000FFFF0000000000000000000000FFFF00000000000000000000000000000000000000FFFFFFFFFFFFFFFFFFFFFF0000000000000000000000000000000000000000000000000000000000000000000000000000000000000000000000000000000000000000000000000000000000000000000000000000000000000000
1004
00000000000000000000000000000000000000000000000000000000000000000000000000000000000000000000000000000000000000000000000000000000000000000000000000000000000000000000000000000000000000000000000000000000000000000000000000000000000000000000000000000000000000
1004
0000000000000000000000000000000000000000000000000000000000000000000000000000000000000000000000000000000000000000
  0
BLOCK_RECORD
  5
1F8
330
1
100
AcDbSymbolTableRecord
100
AcDbBlockTableRecord
  2
*U1
  0
BLOCK_RECORD
  5
201
330
1
100
AcDbSymbolTableRecord
100
AcDbBlockTableRecord
  2
*U2
  0
BLOCK_RECORD
  5
20E
330
1
100
AcDbSymbolTableRecord
100
AcDbBlockTableRecord
  2
*U3
  0
BLOCK_RECORD
  5
215
330
1
100
AcDbSymbolTableRecord
100
AcDbBlockTableRecord
  2
*U4
  0
ENDTAB
  0
ENDSEC
  0
SECTION
  2
BLOCKS
  0
BLOCK
  5
20
330
1F
100
AcDbEntity
  8
0
100
AcDbBlockBegin
  2
*MODEL_SPACE
 70
     0
 10
0.0
 20
0.0
 30
0.0
  3
*MODEL_SPACE
  1

  0
ENDBLK
  5
21
330
1F
100
AcDbEntity
  8
0
100
AcDbBlockEnd
  0
BLOCK
  5
52
330
50
100
AcDbEntity
 67
     1
  8
0
100
AcDbBlockBegin
  2
*PAPER_SPACE
 70
     0
 10
0.0
 20
0.0
 30
0.0
  3
*PAPER_SPACE
  1

  0
ENDBLK
  5
53
330
50
100
AcDbEntity
 67
     1
  8
0
100
AcDbBlockEnd
  0
BLOCK
  5
D0
330
CF
100
AcDbEntity
  8
0
100
AcDbBlockBegin
  2
ADKA
 70
     0
 10
0.0
 20
0.0
 30
0.0
  3
ADKA
  1

  0
INSERT
  5
1D0
330
CF
100
AcDbEntity
  8
HATCH
  6
CONTINUOUS
 62
     3
100
AcDbBlockReference
  2
*U1
 10
0.0
 20
0.0
 30
0.0
1001
ACAD
1002
{
1000
R14_HATCH_DATA
1000
1D0
1011
1.0
1021
0.0
1031
0.0
1011
0.0
1021
1.0
1031
0.0
1011
0.0
1021
0.0
1031
1.0
1040
0.0
1010
0.0
1020
0.0
1030
1.0
1000
SOLID
1070
     1
1070
     1
1071
        2
1071
        7
1070
     0
1070
     1
1071
        5
1040
1970.637820464654
1040
2082.657989493065
1040
1970.652213544393
1040
2053.48522904815
1040
2036.331571958589
1040
2053.517633531936
1040
2764.857716338127
1040
2053.517633531937
1040
2764.857716338127
1040
2082.657989493064
1071
        5
1005
1D5
1005
1DE
1005
1DD
1005
1D6
1005
1F1
1071
        7
1070
     0
1070
     1
1071
        5
1040
2764.857716338127
1040
1436.925796588459
1040
2764.857716338127
1040
1466.457999948247
1040
2036.331571958589
1040
1466.457999948248
1040
1970.652213544394
1040
1466.490404432033
1040
1970.637820464651
1040
1437.317643987113
1071
        5
1005
1D7
1005
1DB
1005
1DC
1005
1DA
1005
1F2
1070
     0
1070
     1
1040
2.272084694167984
1071
        2
1040
2686.959653899506
1040
2071.770105446656
1040
0.0
1040
2605.114495815534
1040
1449.218897436021
1040
0.0
1002
}
  0
INSERT
  5
1D1
330
CF
100
AcDbEntity
  8
HATCH
  6
CONTINUOUS
 62
     1
100
AcDbBlockReference
  2
*U2
 10
0.0
 20
0.0
 30
0.0
1001
ACAD
1002
{
1000
R14_HATCH_DATA
1000
1D1
1011
1.0
1021
0.0
1031
0.0
1011
0.0
1021
1.0
1031
0.0
1011
0.0
1021
0.0
1031
1.0
1040
0.0
1010
0.0
1020
0.0
1030
1.0
1000
SOLID
1070
     1
1070
     1
1071
        2
1071
        7
1070
     0
1070
     1
1071
        7
1040
4057.782660977871
1040
2082.657989493064
1040
2764.857716338127
1040
2082.657989493065
1040
2764.857716338127
1040
2053.517633531937
1040
4703.644308237072
1040
2053.51763353194
1040
4703.632864155912
1040
2076.713186137211
1040
4466.457380024086
1040
2076.59616993431
1040
4466.457378489931
1040
2076.599279454403
1071
        7
1005
1EA
1005
1EB
1005
1EF
1005
1D5
1005
1F1
1005
1D6
1005
1EC
1071
        7
1070
     0
1070
     1
1071
        7
1040
4057.782152929704
1040
1436.287901366027
1040
4466.457380024102
1040
1443.37946354588
1040
4703.632864155911
1040
1443.262447342982
1040
4703.644308237074
1040
1466.457999948245
1040
2764.857716338126
1040
1466.457999948247
1040
2764.857716338127
1040
1436.925796588459
1040
3265.98090173077
1040
1436.678555468435
1071
        7
1005
1D7
1005
1F2
1005
1DA
1005
1D4
1005
1F0
1005
1E2
1005
1E4
1070
     0
1070
     1
1040
2.796270820514074
1071
        2
1040
4070.094107367993
1040
2071.167012454681
1040
0.0
1040
3879.831208934287
1040
1450.394881384849
1040
0.0
1002
}
  0
INSERT
  5
1D2
330
CF
100
AcDbEntity
  8
HATCH
  6
CONTINUOUS
 62
   251
100
AcDbBlockReference
  2
*U3
 10
0.0
 20
0.0
 30
0.0
1001
ACAD
1002
{
1000
R14_HATCH_DATA
1000
1D2
1011
1.0
1021
0.0
1031
0.0
1011
0.0
1021
1.0
1031
0.0
1011
0.0
1021
0.0
1031
1.0
1040
0.0
1010
0.0
1020
0.0
1030
1.0
1000
SOLID
1070
     1
1070
     1
1071
        2
1071
        7
1070
     0
1070
     1
1071
        4
1040
4057.773157254866
1040
2101.920707392229
1040
4057.782660977877
1040
2082.657989493065
1040
4466.45737848993
1040
2076.599279454403
1040
4466.444786079316
1040
2102.122335323609
1071
        4
1005
1E8
1005
1E9
1005
1EF
1005
1EB
1071
        7
1070
     0
1070
     1
1071
        4
1040
4466.444786079317
1040
1417.853298156582
1040
4466.457380024086
1040
1443.379463545881
1040
4057.782152929704
1040
1436.287901366026
1040
4057.773157254866
1040
1418.054926087959
1071
        4
1005
1F0
1005
1E1
1005
1E0
1005
1E3
1070
     0
1070
     1
1040
1.401901538781046
1071
        2
1040
4366.636677557173
1040
2093.202152917198
1040
0.0
1040
4248.804823789123
1040
1427.298903791135
1040
0.0
1002
}
  0
INSERT
  5
1D3
330
CF
100
AcDbEntity
  8
HATCH
  6
CONTINUOUS
 62
     2
100
AcDbBlockReference
  2
*U4
 10
0.0
 20
0.0
 30
0.0
1001
ACAD
1002
{
1000
R14_HATCH_DATA
1000
1D3
1011
1.0
1021
0.0
1031
0.0
1011
0.0
1021
1.0
1031
0.0
1011
0.0
1021
0.0
1031
1.0
1040
0.0
1010
0.0
1020
0.0
1030
1.0
1000
SOLID
1070
     1
1070
     1
1071
        1
1071
        7
1070
     1
1070
     1
1071
       10
1040
2036.33157195859
1040
2053.517633531936
1040
-0.2690207048537871
1040
2036.331571958589
1040
1466.457999948248
1040
0.0
1040
5057.583211888052
1040
1466.457999948244
1040
0.0
1040
5057.60586521625
1040
1512.373129211004
1040
0.0
1040
4948.182706797211
1040
1512.427115745717
1040
0.0
1040
4948.304533676576
1040
1759.353168527304
1040
0.0
1040
4948.304533676576
1040
1760.622464952888
1040
0.0
1040
4948.182706797211
1040
2007.548517734474
1040
0.0
1040
5057.605865216246
1040
2007.602504269186
1040
0.0
1040
5057.583211888049
1040
2053.517633531941
1040
0.0
1071
        9
1005
1EE
1005
1ED
1005
1D6
1005
1D9
1005
1D7
1005
1E5
1005
1E7
1005
1E6
1005
1DF
1070
     0
1070
     1
1040
6.613245520124327
1071
        1
1040
3835.048116385925
1040
1765.095298907803
1040
0.0
1002
}
  0
LINE
  5
1D4
330
CF
100
AcDbEntity
  8
OBJECT
 62
     7
100
AcDbLine
 10
4057.782152929704
 20
1436.287901366027
 30
214.0000000000001
 11
3265.98090173077
 21
1436.678555468435
 31
214.0000000000001
  0
LINE
  5
1D5
330
CF
100
AcDbEntity
  8
OBJECT
 62
     0
100
AcDbLine
 10
1970.637820464654
 20
2082.657989493065
 30
214.0000000000001
 11
4057.782660977877
 21
2082.657989493065
 31
214.0000000000001
  0
LINE
  5
1D6
330
CF
100
AcDbEntity
  8
OBJECT
 62
     0
100
AcDbLine
 10
2036.331571958589
 20
2053.517633531936
 30
214.0000000000001
 11
5057.583211888048
 21
2053.517633531941
 31
214.0000000000001
  0
LINE
  5
1D7
330
CF
100
AcDbEntity
  8
OBJECT
 62
     0
100
AcDbLine
 10
2036.331571958589
 20
1466.457999948248
 30
214.0000000000001
 11
5057.583211888052
 21
1466.457999948245
 31
214.0000000000001
  0
POLYLINE
  5
1D8
330
CF
100
AcDbEntity
  8
SAFETY
 48
5.0
100
AcDb2dPolyline
 66
     1
 10
0.0
 20
0.0
 30
0.0
 70
     1
1001
AVE_FINISH
1002
{
1070
     0
1005
0
1002
}
  0
VERTEX
  5
224
330
1D8
100
AcDbEntity
  8
SAFETY
 48
5.0
100
AcDbVertex
100
AcDb2dVertex
 10
5079.688276770312
 20
3525.84050124458
 30
0.0
  0
VERTEX
  5
225
330
1D8
100
AcDbEntity
  8
SAFETY
 48
5.0
100
AcDbVertex
100
AcDb2dVertex
 10
3726.222438611422
 20
3524.999319131275
 30
0.0
 42
0.0816303724769796
  0
VERTEX
  5
226
330
1D8
100
AcDbEntity
  8
SAFETY
 48
5.0
100
AcDbVertex
100
AcDb2dVertex
 10
3246.172623286422
 20
3445.793840838785
 30
0.0
  0
VERTEX
  5
227
330
1D8
100
AcDbEntity
  8
SAFETY
 48
5.0
100
AcDbVertex
100
AcDb2dVertex
 10
1999.99962270168
 20
3023.926371137684
 30
0.0
  0
VERTEX
  5
228
330
1D8
100
AcDbEntity
  8
SAFETY
 48
5.0
100
AcDbVertex
100
AcDb2dVertex
 10
0.000008966664609
 20
3022.683366804482
 30
0.0
  0
VERTEX
  5
229
330
1D8
100
AcDbEntity
  8
SAFETY
 48
5.0
100
AcDbVertex
100
AcDb2dVertex
 10
1.569301937333874
 20
497.6838544640156
 30
0.0
  0
VERTEX
  5
22A
330
1D8
100
AcDbEntity
  8
SAFETY
 48
5.0
100
AcDbVertex
100
AcDb2dVertex
 10
2001.568915672365
 20
498.9268587972182
 30
0.0
  0
VERTEX
  5
22B
330
1D8
100
AcDbEntity
  8
SAFETY
 48
5.0
100
AcDbVertex
100
AcDb2dVertex
 10
3248.265336542799
 20
78.6087131418426
 30
0.0
 42
0.0816303724769804
  0
VERTEX
  5
22C
330
1D8
100
AcDbEntity
  8
SAFETY
 48
5.0
100
AcDbVertex
100
AcDb2dVertex
 10
3728.413233748691
 20
-0.0000000766885933
 30
0.0
  0
VERTEX
  5
22D
330
1D8
100
AcDbEntity
  8
SAFETY
 48
5.0
100
AcDbVertex
100
AcDb2dVertex
 10
5081.879071907593
 20
0.8411820366127358
 30
0.0
 42
0.4142135623730951
  0
VERTEX
  5
22E
330
1D8
100
AcDbEntity
  8
SAFETY
 48
5.0
100
AcDbVertex
100
AcDb2dVertex
 10
6580.946528958951
 20
1501.77314558778
 30
0.0
  0
VERTEX
  5
22F
330
1D8
100
AcDbEntity
  8
SAFETY
 48
5.0
100
AcDbVertex
100
AcDb2dVertex
 10
6580.620240321481
 20
2026.773044193221
 30
0.0
 42
0.4142135623730944
  0
SEQEND
  5
230
330
1D8
100
AcDbEntity
  8
SAFETY
 48
5.0
  0
ARC
  5
1D9
330
CF
100
AcDbEntity
  8
OBJECT
 62
     7
100
AcDbCircle
 10
1530.261907078222
 20
1759.987816740093
 30
214.0000000000001
 40
585.0352630893121
100
AcDbArc
 50
329.8854695603088
 51
30.11453043969105
  0
LINE
  5
1DA
330
CF
100
AcDbEntity
  8
OBJECT
 62
     7
100
AcDbLine
 10
3265.98090173077
 20
1436.678555468435
 30
214.0000000000001
 11
1970.637820464652
 21
1437.317643987113
 31
214.0000000000001
  0
LINE
  5
1DB
330
CF
100
AcDbEntity
  8
OBJECT
 62
     7
100
AcDbLine
 10
1970.652213544394
 20
1466.490404432033
 30
214.0000000000001
 11
2036.331571958589
 21
1466.457999948248
 31
214.0000000000001
  0
LINE
  5
1DC
330
CF
100
AcDbEntity
  8
OBJECT
 62
     0
100
AcDbLine
 10
1970.637820464652
 20
1437.317643987113
 30
214.0000000000001
 11
1970.652213544394
 21
1466.490404432033
 31
214.0000000000001
  0
LINE
  5
1DD
330
CF
100
AcDbEntity
  8
OBJECT
 62
     7
100
AcDbLine
 10
1970.652213544393
 20
2053.48522904815
 30
214.0000000000001
 11
2036.331571958589
 21
2053.517633531936
 31
214.0000000000001
  0
LINE
  5
1DE
330
CF
100
AcDbEntity
  8
OBJECT
 62
     0
100
AcDbLine
 10
1970.637820464654
 20
2082.657989493065
 30
214.0000000000001
 11
1970.652213544393
 21
2053.48522904815
 31
214.0000000000001
  0
LINE
  5
1DF
330
CF
100
AcDbEntity
  8
OBJECT
 62
     7
100
AcDbLine
 10
4948.304533676576
 20
1760.622464952888
 30
214.0000000000001
 11
4948.182706797211
 21
2007.548517734474
 31
214.0000000000001
  0
LINE
  5
1E0
330
CF
100
AcDbEntity
  8
OBJECT
 62
     7
100
AcDbLine
 10
4466.444786079318
 20
1417.853298156583
 30
214.0000000000001
 11
4057.773157254866
 21
1418.054926087959
 31
214.0000000000001
  0
LINE
  5
1E1
330
CF
100
AcDbEntity
  8
OBJECT
 62
     7
100
AcDbLine
 10
4057.773157254866
 20
1418.054926087959
 30
214.0000000000001
 11
4057.782152929704
 21
1436.287901366027
 31
214.0000000000001
  0
LINE
  5
1E2
330
CF
100
AcDbEntity
  8
OBJECT
 62
     7
100
AcDbLine
 10
4703.632864155912
 20
1443.262447342982
 30
214.0000000000001
 11
4466.457380024086
 21
1443.37946354588
 31
214.0000000000001
  0
LINE
  5
1E3
330
CF
100
AcDbEntity
  8
OBJECT
 62
     7
100
AcDbLine
 10
4466.457380024086
 20
1443.37946354588
 30
214.0000000000001
 11
4466.444786079318
 21
1417.853298156583
 31
214.0000000000001
  0
LINE
  5
1E4
330
CF
100
AcDbEntity
  8
OBJECT
 62
     7
100
AcDbLine
 10
4703.644308237075
 20
1466.457999948248
 30
214.0000000000001
 11
4703.632864155912
 21
1443.262447342982
 31
214.0000000000001
  0
LINE
  5
1E5
330
CF
100
AcDbEntity
  8
OBJECT
 62
     7
100
AcDbLine
 10
5057.605865216249
 20
1512.373129211002
 30
214.0000000000001
 11
5057.583211888052
 21
1466.457999948248
 31
214.0000000000001
  0
LINE
  5
1E6
330
CF
100
AcDbEntity
  8
OBJECT
 62
     7
100
AcDbLine
 10
4948.304533676576
 20
1759.353168527304
 30
214.0000000000001
 11
4948.182706797211
 21
1512.427115745718
 31
214.0000000000001
  0
LINE
  5
1E7
330
CF
100
AcDbEntity
  8
OBJECT
 62
     7
100
AcDbLine
 10
4948.182706797211
 20
1512.427115745718
 30
214.0000000000001
 11
5057.605865216245
 21
1512.373129211004
 31
214.0000000000001
  0
LINE
  5
1E8
330
CF
100
AcDbEntity
  8
OBJECT
 62
     7
100
AcDbLine
 10
4466.444786079317
 20
2102.122335323609
 30
214.0000000000001
 11
4057.773157254866
 21
2101.920707392229
 31
214.0000000000001
  0
LINE
  5
1E9
330
CF
100
AcDbEntity
  8
OBJECT
 62
     7
100
AcDbLine
 10
4057.773157254866
 20
2101.920707392229
 30
214.0000000000001
 11
4057.782660977877
 21
2082.657989493065
 31
214.0000000000001
  0
LINE
  5
1EA
330
CF
100
AcDbEntity
  8
OBJECT
 62
     7
100
AcDbLine
 10
4703.632864155912
 20
2076.713186137211
 30
214.0000000000001
 11
4466.457380024086
 21
2076.59616993431
 31
214.0000000000001
  0
LINE
  5
1EB
330
CF
100
AcDbEntity
  8
OBJECT
 62
     7
100
AcDbLine
 10
4466.457380024086
 20
2076.59616993431
 30
214.0000000000001
 11
4466.444786079317
 21
2102.122335323609
 31
214.0000000000001
  0
LINE
  5
1EC
330
CF
100
AcDbEntity
  8
OBJECT
 62
     7
100
AcDbLine
 10
4703.644308237072
 20
2053.517633531936
 30
214.0000000000001
 11
4703.632864155912
 21
2076.713186137211
 31
214.0000000000001
  0
LINE
  5
1ED
330
CF
100
AcDbEntity
  8
OBJECT
 62
     7
100
AcDbLine
 10
5057.605865216245
 20
2007.602504269187
 30
214.0000000000001
 11
5057.583211888048
 21
2053.517633531941
 31
214.0000000000001
  0
LINE
  5
1EE
330
CF
100
AcDbEntity
  8
OBJECT
 62
     7
100
AcDbLine
 10
4948.182706797211
 20
2007.548517734474
 30
214.0000000000001
 11
5057.605865216245
 21
2007.602504269187
 31
214.0000000000001
  0
LINE
  5
1EF
330
CF
100
AcDbEntity
  8
OBJECT
100
AcDbLine
 10
4057.782660977877
 20
2082.657989493065
 30
214.0000000000001
 11
4466.660367889526
 21
2076.596270083232
 31
214.0000000000001
  0
LINE
  5
1F0
330
CF
100
AcDbEntity
  8
OBJECT
100
AcDbLine
 10
4057.782152929704
 20
1436.287901366027
 30
214.0000000000001
 11
4466.457380024086
 21
1443.37946354588
 31
214.0000000000001
  0
LINE
  5
1F1
330
CF
100
AcDbEntity
  8
OBJECT
100
AcDbLine
 10
2764.857716338127
 20
2082.657989493065
 30
0.0
 11
2764.857716338127
 21
2053.517633531937
 31
0.0
  0
LINE
  5
1F2
330
CF
100
AcDbEntity
  8
OBJECT
100
AcDbLine
 10
2764.857716338127
 20
1466.457999948247
 30
0.0
 11
2764.857716338127
 21
1436.925796588459
 31
0.0
  0
ENDBLK
  5
D1
330
CF
100
AcDbEntity
  8
0
100
AcDbBlockEnd
  0
BLOCK
  5
1FF
330
1F8
100
AcDbEntity
  8
0
100
AcDbBlockBegin
  2
*U1
 70
     1
 10
0.0
 20
0.0
 30
0.0
  3
*U1
  1

  0
SOLID
  5
1F9
330
1F8
100
AcDbEntity
  8
HATCH
  6
CONTINUOUS
 62
     3
100
AcDbTrace
 10
2764.857716338127
 20
1466.457999948247
 30
0.0
 11
1970.637820464651
 21
1437.317643987113
 31
0.0
 12
2764.857716338127
 22
1436.925796588459
 32
0.0
 13
2764.857716338127
 23
1436.925796588459
 33
0.0
210
0.0
220
0.0
230
1.0
  0
SOLID
  5
1FA
330
1F8
100
AcDbEntity
  8
HATCH
  6
CONTINUOUS
 62
     3
100
AcDbTrace
 10
2036.331571958589
 20
1466.457999948248
 30
0.0
 11
1970.637820464651
 21
1437.317643987113
 31
0.0
 12
2764.857716338127
 22
1466.457999948247
 32
0.0
 13
2764.857716338127
 23
1466.457999948247
 33
0.0
210
0.0
220
0.0
230
1.0
  0
SOLID
  5
1FB
330
1F8
100
AcDbEntity
  8
HATCH
  6
CONTINUOUS
 62
     3
100
AcDbTrace
 10
1970.652213544394
 20
1466.490404432033
 30
0.0
 11
1970.637820464651
 21
1437.317643987113
 31
0.0
 12
2036.331571958589
 22
1466.457999948248
 32
0.0
 13
2036.331571958589
 23
1466.457999948248
 33
0.0
  0
SOLID
  5
1FC
330
1F8
100
AcDbEntity
  8
HATCH
  6
CONTINUOUS
 62
     3
100
AcDbTrace
 10
2764.857716338127
 20
2082.657989493064
 30
0.0
 11
2036.331571958589
 21
2053.517633531936
 31
0.0
 12
2764.857716338127
 22
2053.517633531937
 32
0.0
 13
2764.857716338127
 23
2053.517633531937
 33
0.0
210
0.0
220
0.0
230
1.0
  0
SOLID
  5
1FD
330
1F8
100
AcDbEntity
  8
HATCH
  6
CONTINUOUS
 62
     3
100
AcDbTrace
 10
2764.857716338127
 20
2082.657989493064
 30
0.0
 11
1970.652213544393
 21
2053.48522904815
 31
0.0
 12
2036.331571958589
 22
2053.517633531936
 32
0.0
 13
2036.331571958589
 23
2053.517633531936
 33
0.0
210
0.0
220
0.0
230
1.0
  0
SOLID
  5
1FE
330
1F8
100
AcDbEntity
  8
HATCH
  6
CONTINUOUS
 62
     3
100
AcDbTrace
 10
1970.637820464654
 20
2082.657989493065
 30
0.0
 11
1970.652213544393
 21
2053.48522904815
 31
0.0
 12
2764.857716338127
 22
2082.657989493064
 32
0.0
 13
2764.857716338127
 23
2082.657989493064
 33
0.0
  0
ENDBLK
  5
200
330
1F8
100
AcDbEntity
  8
0
100
AcDbBlockEnd
  0
BLOCK
  5
20C
330
201
100
AcDbEntity
  8
0
100
AcDbBlockBegin
  2
*U2
 70
     1
 10
0.0
 20
0.0
 30
0.0
  3
*U2
  1

  0
SOLID
  5
202
330
201
100
AcDbEntity
  8
HATCH
  6
CONTINUOUS
 62
     1
100
AcDbTrace
 10
4466.457380024102
 20
1443.37946354588
 30
0.0
 11
2764.857716338127
 21
1436.925796588459
 31
0.0
 12
3265.98090173077
 22
1436.678555468435
 32
0.0
 13
3265.98090173077
 23
1436.678555468435
 33
0.0
210
0.0
220
0.0
230
1.0
  0
SOLID
  5
203
330
201
100
AcDbEntity
  8
HATCH
  6
CONTINUOUS
 62
     1
100
AcDbTrace
 10
4466.457380024102
 20
1443.37946354588
 30
0.0
 11
3265.98090173077
 21
1436.678555468435
 31
0.0
 12
4057.782152929704
 22
1436.287901366027
 32
0.0
 13
4057.782152929704
 23
1436.287901366027
 33
0.0
210
0.0
220
0.0
230
1.0
  0
SOLID
  5
204
330
201
100
AcDbEntity
  8
HATCH
  6
CONTINUOUS
 62
     1
100
AcDbTrace
 10
4703.644308237074
 20
1466.457999948245
 30
0.0
 11
4466.457380024102
 21
1443.37946354588
 31
0.0
 12
4703.632864155911
 22
1443.262447342982
 32
0.0
 13
4703.632864155911
 23
1443.262447342982
 33
0.0
210
0.0
220
0.0
230
1.0
  0
SOLID
  5
205
330
201
100
AcDbEntity
  8
HATCH
  6
CONTINUOUS
 62
     1
100
AcDbTrace
 10
2764.857716338126
 20
1466.457999948247
 30
0.0
 11
4466.457380024102
 21
1443.37946354588
 31
0.0
 12
4703.644308237074
 22
1466.457999948245
 32
0.0
 13
4703.644308237074
 23
1466.457999948245
 33
0.0
210
0.0
220
0.0
230
1.0
  0
SOLID
  5
206
330
201
100
AcDbEntity
  8
HATCH
  6
CONTINUOUS
 62
     1
100
AcDbTrace
 10
2764.857716338126
 20
1466.457999948247
 30
0.0
 11
2764.857716338127
 21
1436.925796588459
 31
0.0
 12
4466.457380024102
 22
1443.37946354588
 32
0.0
 13
4466.457380024102
 23
1443.37946354588
 33
0.0
210
0.0
220
0.0
230
1.0
  0
SOLID
  5
207
330
201
100
AcDbEntity
  8
HATCH
  6
CONTINUOUS
 62
     1
100
AcDbTrace
 10
4466.457380024086
 20
2076.59616993431
 30
0.0
 11
2764.857716338127
 21
2053.517633531937
 31
0.0
 12
4703.644308237072
 22
2053.51763353194
 32
0.0
 13
4703.644308237072
 23
2053.51763353194
 33
0.0
210
0.0
220
0.0
230
1.0
  0
SOLID
  5
208
330
201
100
AcDbEntity
  8
HATCH
  6
CONTINUOUS
 62
     1
100
AcDbTrace
 10
4466.457378489931
 20
2076.599279454403
 30
0.0
 11
2764.857716338127
 21
2053.517633531937
 31
0.0
 12
4466.457380024086
 22
2076.59616993431
 32
0.0
 13
4466.457380024086
 23
2076.59616993431
 33
0.0
210
0.0
220
0.0
230
1.0
  0
SOLID
  5
209
330
201
100
AcDbEntity
  8
HATCH
  6
CONTINUOUS
 62
     1
100
AcDbTrace
 10
4703.632864155912
 20
2076.713186137211
 30
0.0
 11
4466.457380024086
 21
2076.59616993431
 31
0.0
 12
4703.644308237072
 22
2053.51763353194
 32
0.0
 13
4703.644308237072
 23
2053.51763353194
 33
0.0
210
0.0
220
0.0
230
1.0
  0
SOLID
  5
20A
330
201
100
AcDbEntity
  8
HATCH
  6
CONTINUOUS
 62
     1
100
AcDbTrace
 10
4057.782660977871
 20
2082.657989493064
 30
0.0
 11
2764.857716338127
 21
2053.517633531937
 31
0.0
 12
4466.457378489931
 22
2076.599279454403
 32
0.0
 13
4466.457378489931
 23
2076.599279454403
 33
0.0
210
0.0
220
0.0
230
1.0
  0
SOLID
  5
20B
330
201
100
AcDbEntity
  8
HATCH
  6
CONTINUOUS
 62
     1
100
AcDbTrace
 10
2764.857716338127
 20
2082.657989493065
 30
0.0
 11
2764.857716338127
 21
2053.517633531937
 31
0.0
 12
4057.782660977871
 22
2082.657989493064
 32
0.0
 13
4057.782660977871
 23
2082.657989493064
 33
0.0
  0
ENDBLK
  5
20D
330
201
100
AcDbEntity
  8
0
100
AcDbBlockEnd
  0
BLOCK
  5
213
330
20E
100
AcDbEntity
  8
0
100
AcDbBlockBegin
  2
*U3
 70
     1
 10
0.0
 20
0.0
 30
0.0
  3
*U3
  1

  0
SOLID
  5
20F
330
20E
100
AcDbEntity
  8
HATCH
  6
CONTINUOUS
 62
   251
100
AcDbTrace
 10
4057.782152929704
 20
1436.287901366026
 30
0.0
 11
4057.773157254866
 21
1418.054926087959
 31
0.0
 12
4466.444786079317
 22
1417.853298156582
 32
0.0
 13
4466.444786079317
 23
1417.853298156582
 33
0.0
210
0.0
220
0.0
230
1.0
  0
SOLID
  5
210
330
20E
100
AcDbEntity
  8
HATCH
  6
CONTINUOUS
 62
   251
100
AcDbTrace
 10
4466.457380024086
 20
1443.379463545881
 30
0.0
 11
4057.782152929704
 21
1436.287901366026
 31
0.0
 12
4466.444786079317
 22
1417.853298156582
 32
0.0
 13
4466.444786079317
 23
1417.853298156582
 33
0.0
  0
SOLID
  5
211
330
20E
100
AcDbEntity
  8
HATCH
  6
CONTINUOUS
 62
   251
100
AcDbTrace
 10
4057.773157254866
 20
2101.920707392229
 30
0.0
 11
4057.782660977877
 21
2082.657989493065
 31
0.0
 12
4466.45737848993
 22
2076.599279454403
 32
0.0
 13
4466.45737848993
 23
2076.599279454403
 33
0.0
210
0.0
220
0.0
230
1.0
  0
SOLID
  5
212
330
20E
100
AcDbEntity
  8
HATCH
  6
CONTINUOUS
 62
   251
100
AcDbTrace
 10
4466.444786079316
 20
2102.122335323609
 30
0.0
 11
4057.773157254866
 21
2101.920707392229
 31
0.0
 12
4466.45737848993
 22
2076.599279454403
 32
0.0
 13
4466.45737848993
 23
2076.599279454403
 33
0.0
210
0.0
220
0.0
230
1.0
  0
ENDBLK
  5
214
330
20E
100
AcDbEntity
  8
0
100
AcDbBlockEnd
  0
BLOCK
  5
222
330
215
100
AcDbEntity
  8
0
100
AcDbBlockBegin
  2
*U4
 70
     1
 10
0.0
 20
0.0
 30
0.0
  3
*U4
  1

  0
SOLID
  5
216
330
215
100
AcDbEntity
  8
HATCH
  6
CONTINUOUS
 62
     2
100
AcDbTrace
 10
5057.60586521625
 20
1512.373129211004
 30
0.0
 11
2036.331571958589
 21
1466.457999948248
 31
0.0
 12
5057.583211888052
 22
1466.457999948244
 32
0.0
 13
5057.583211888052
 23
1466.457999948244
 33
0.0
  0
SOLID
  5
217
330
215
100
AcDbEntity
  8
HATCH
  6
CONTINUOUS
 62
     2
100
AcDbTrace
 10
4948.182706797211
 20
1512.427115745717
 30
0.0
 11
2036.331571958589
 21
1466.457999948248
 31
0.0
 12
5057.60586521625
 22
1512.373129211004
 32
0.0
 13
5057.60586521625
 23
1512.373129211004
 33
0.0
210
0.0
220
0.0
230
1.0
  0
SOLID
  5
218
330
215
100
AcDbEntity
  8
HATCH
  6
CONTINUOUS
 62
     2
100
AcDbTrace
 10
2086.446278875905
 20
1578.534782524628
 30
0.0
 11
2036.331571958589
 21
1466.457999948248
 31
0.0
 12
4948.182706797211
 22
1512.427115745717
 32
0.0
 13
4948.182706797211
 23
1512.427115745717
 33
0.0
210
0.0
220
0.0
230
1.0
  0
SOLID
  5
219
330
215
100
AcDbEntity
  8
HATCH
  6
CONTINUOUS
 62
     2
100
AcDbTrace
 10
2112.067791198914
 20
1698.602376605477
 30
0.0
 11
2086.446278875905
 21
1578.534782524628
 31
0.0
 12
4948.182706797211
 22
1512.427115745717
 32
0.0
 13
4948.182706797211
 23
1512.427115745717
 33
0.0
210
0.0
220
0.0
230
1.0
  0
SOLID
  5
21A
330
215
100
AcDbEntity
  8
HATCH
  6
CONTINUOUS
 62
     2
100
AcDbTrace
 10
4948.304533676576
 20
1759.353168527304
 30
0.0
 11
2112.067791198914
 21
1698.602376605477
 31
0.0
 12
4948.182706797211
 22
1512.427115745717
 32
0.0
 13
4948.182706797211
 23
1512.427115745717
 33
0.0
210
0.0
220
0.0
230
1.0
  0
SOLID
  5
21B
330
215
100
AcDbEntity
  8
HATCH
  6
CONTINUOUS
 62
     2
100
AcDbTrace
 10
4948.304533676576
 20
1760.622464952888
 30
0.0
 11
2112.067791198914
 21
1698.602376605477
 31
0.0
 12
4948.304533676576
 22
1759.353168527304
 32
0.0
 13
4948.304533676576
 23
1759.353168527304
 33
0.0
210
0.0
220
0.0
230
1.0
  0
SOLID
  5
21C
330
215
100
AcDbEntity
  8
HATCH
  6
CONTINUOUS
 62
     2
100
AcDbTrace
 10
2112.067791198914
 20
1821.373256874707
 30
0.0
 11
2112.067791198914
 21
1698.602376605477
 31
0.0
 12
4948.304533676576
 22
1760.622464952888
 32
0.0
 13
4948.304533676576
 23
1760.622464952888
 33
0.0
210
0.0
220
0.0
230
1.0
  0
SOLID
  5
21D
330
215
100
AcDbEntity
  8
HATCH
  6
CONTINUOUS
 62
     2
100
AcDbTrace
 10
2086.446278875905
 20
1941.440850955556
 30
0.0
 11
2112.067791198914
 21
1821.373256874707
 31
0.0
 12
4948.304533676576
 22
1760.622464952888
 32
0.0
 13
4948.304533676576
 23
1760.622464952888
 33
0.0
210
0.0
220
0.0
230
1.0
  0
SOLID
  5
21E
330
215
100
AcDbEntity
  8
HATCH
  6
CONTINUOUS
 62
     2
100
AcDbTrace
 10
4948.182706797211
 20
2007.548517734474
 30
0.0
 11
2086.446278875905
 21
1941.440850955556
 31
0.0
 12
4948.304533676576
 22
1760.622464952888
 32
0.0
 13
4948.304533676576
 23
1760.622464952888
 33
0.0
210
0.0
220
0.0
230
1.0
  0
SOLID
  5
21F
330
215
100
AcDbEntity
  8
HATCH
  6
CONTINUOUS
 62
     2
100
AcDbTrace
 10
2036.331571958589
 20
2053.517633531936
 30
0.0
 11
4948.182706797211
 21
2007.548517734474
 31
0.0
 12
5057.605865216246
 22
2007.602504269186
 32
0.0
 13
5057.605865216246
 23
2007.602504269186
 33
0.0
210
0.0
220
0.0
230
1.0
  0
SOLID
  5
220
330
215
100
AcDbEntity
  8
HATCH
  6
CONTINUOUS
 62
     2
100
AcDbTrace
 10
2036.331571958589
 20
2053.517633531936
 30
0.0
 11
2086.446278875905
 21
1941.440850955556
 31
0.0
 12
4948.182706797211
 22
2007.548517734474
 32
0.0
 13
4948.182706797211
 23
2007.548517734474
 33
0.0
210
0.0
220
0.0
230
1.0
  0
SOLID
  5
221
330
215
100
AcDbEntity
  8
HATCH
  6
CONTINUOUS
 62
     2
100
AcDbTrace
 10
5057.583211888049
 20
2053.517633531941
 30
0.0
 11
2036.331571958589
 21
2053.517633531936
 31
0.0
 12
5057.605865216246
 22
2007.602504269186
 32
0.0
 13
5057.605865216246
 23
2007.602504269186
 33
0.0
210
0.0
220
0.0
230
1.0
  0
ENDBLK
  5
223
330
215
100
AcDbEntity
  8
0
100
AcDbBlockEnd
  0
ENDSEC
  0
SECTION
  2
ENTITIES
  0
MTEXT
  5
122
330
1F
100
AcDbEntity
  8
TEKST
100
AcDbMText
 10
3594.598388653314
 20
2938.755377543998
 30
0.0
 40
100.0
 41
1657.828
 71
     1
 72
     1
  1
{\FIMPACT.TTF;Hoogte: 157 cm\PMax. valhoogte: 90 cm}
1001
ACAD
1000
MTEXTBEGIN
1070
    73
1070
     1
1070
    44
1040
1.0
1070
    74
1070
     0
1000
MTEXTEND
1000
MTEXTBEGIN
1070
    73
1070
     1
1070
    44
1040
1.0
1070
    74
1070
     0
1000
MTEXTEND
  0
INSERT
  5
1F3
330
1F
100
AcDbEntity
  8
HATCH
100
AcDbBlockReference
  2
ADKA
 10
0.0
 20
0.0
 30
0.0
  0
ENDSEC
  0
SECTION
  2
OBJECTS
  0
DICTIONARY
  5
C
330
0
100
AcDbDictionary
  3
ACAD_GROUP
350
D
  3
ACAD_LAYOUT
350
1A
  3
ACAD_MLINESTYLE
350
17
  3
ACAD_PLOTSETTINGS
350
19
1001
ACAD
1000
TREAT_AS_HARD
1070
     0
1000
TREAT_AS_HARD
1070
     0
  0
DICTIONARY
  5
C1
330
1F
100
AcDbDictionary
  3
ACAD_LAYOUTSELFREF
350
1F5
  3
ACAD_SORTENTS
350
16A
1001
ACAD
1000
TREAT_AS_HARD
1070
     1
1000
TREAT_AS_HARD
1070
     0
  0
DICTIONARY
  5
C3
330
50
100
AcDbDictionary
  3
ACAD_LAYOUTSELFREF
350
1F6
1001
ACAD
1000
TREAT_AS_HARD
1070
     1
1000
TREAT_AS_HARD
1070
     0
  0
DICTIONARY
  5
D
102
{ACAD_REACTORS
330
C
102
}
330
C
100
AcDbDictionary
1001
ACAD
1000
TREAT_AS_HARD
1070
     0
1000
TREAT_AS_HARD
1070
     0
  0
DICTIONARY
  5
1A
102
{ACAD_REACTORS
330
C
102
}
330
C
100
AcDbDictionary
1001
ACAD
1000
TREAT_AS_HARD
1070
     0
1000
TREAT_AS_HARD
1070
     0
  0
DICTIONARY
  5
17
102
{ACAD_REACTORS
330
C
102
}
330
C
100
AcDbDictionary
  3
STANDARD
350
18
1001
ACAD
1000
TREAT_AS_HARD
1070
     0
1000
TREAT_AS_HARD
1070
     0
  0
DICTIONARY
  5
19
102
{ACAD_REACTORS
330
C
102
}
330
C
100
AcDbDictionary
1001
ACAD
1000
TREAT_AS_HARD
1070
     0
1000
TREAT_AS_HARD
1070
     0
  0
XRECORD
  5
1F5
102
{ACAD_REACTORS
330
C1
102
}
330
C1
100
AcDbXrecord
340
1F
  0
SORTENTSTABLE
  5
16A
102
{ACAD_REACTORS
330
C1
102
}
330
C1
100
AcDbSortentsTable
330
1F
331
1B1
  5
1B2
331
1C2
  5
1C3
331
169
  5
188
331
147
  5
14B
331
158
  5
167
331
1C0
  5
1C1
331
167
  5
171
331
145
  5
149
331
1AF
  5
1B0
331
156
  5
165
331
143
  5
147
331
1BE
  5
1BF
331
165
  5
141
331
1AD
  5
1AE
331
1CF
  5
122
331
154
  5
158
331
1BC
  5
1BD
331
141
  5
145
331
1CD
  5
1CE
331
152
  5
156
331
1BA
  5
1BB
331
1CB
  5
1CC
331
150
  5
154
331
13F
  5
143
331
1B8
  5
1B9
331
1C9
  5
1CA
331
14E
  5
152
331
1B6
  5
1B7
331
1C7
  5
1C8
331
14C
  5
150
331
1B4
  5
1B5
331
1C5
  5
1C6
331
14A
  5
14E
331
1B2
  5
1B3
331
1C3
  5
1C4
331
148
  5
14C
331
159
  5
168
331
1B0
  5
1B1
331
1C1
  5
1C2
331
168
  5
17E
331
146
  5
14A
331
157
  5
166
331
166
  5
169
331
144
  5
148
331
1BF
  5
1C0
331
188
  5
140
331
1AE
  5
1AF
331
155
  5
159
331
1BD
  5
1BE
331
142
  5
146
331
1CE
  5
1CF
331
153
  5
157
331
1BB
  5
1BC
331
140
  5
144
331
1CC
  5
1CD
331
151
  5
155
331
1B9
  5
1BA
331
1CA
  5
1CB
331
171
  5
1AD
331
14F
  5
153
331
1B7
  5
1B8
331
1C8
  5
1C9
331
14D
  5
151
331
1B5
  5
1B6
331
122
  5
142
331
1C6
  5
1C7
331
14B
  5
14F
331
17E
  5
13F
331
1B3
  5
1B4
331
1C4
  5
1C5
331
149
  5
14D
  0
XRECORD
  5
1F6
102
{ACAD_REACTORS
330
C3
102
}
330
C3
100
AcDbXrecord
340
50
  0
MLINESTYLE
  5
18
102
{ACAD_REACTORS
330
17
102
}
330
17
100
AcDbMlineStyle
  2
STANDARD
 70
     0
  3

 62
   256
 51
90.0
 52
90.0
 71
     2
 49
0.5
 62
   256
  6
BYLAYER
 49
-0.5
 62
   256
  6
BYLAYER
  0
ENDSEC
  0
EOF
