  0
SECTION
  2
HEADER
  9
$ACADVER
  1
AC1012
  9
$DWGCODEPAGE
  3
ANSI_1252
  9
$INSBASE
 10
0.0
 20
0.0
 30
0.0
  9
$EXTMIN
 10
-310.861520194021
 20
-310.7925920317939
 30
-0.0015258207003583
  9
$EXTMAX
 10
6287.698402612197
 20
4028.792602623343
 30
0.0000000349246037
  9
$LIMMIN
 10
0.0
 20
0.0
  9
$LIMMAX
 10
420.0
 20
297.0
  9
$ORTHOMODE
 70
     0
  9
$REGENMODE
 70
     1
  9
$FILLMODE
 70
     1
  9
$QTEXTMODE
 70
     0
  9
$MIRRTEXT
 70
     1
  9
$DRAGMODE
 70
     2
  9
$LTSCALE
 40
1.0
  9
$OSMODE
 70
  2559
  9
$ATTMODE
 70
     1
  9
$TEXTSIZE
 40
2.5
  9
$TRACEWID
 40
1.0
  9
$TEXTSTYLE
  7
STANDARD
  9
$CLAYER
  8
HATCH
  9
$CELTYPE
  6
BYLAYER
  9
$CECOLOR
 62
   256
  9
$CELTSCALE
 40
1.0
  9
$DELOBJ
 70
     1
  9
$DISPSILH
 70
     0
  9
$DIMSCALE
 40
1.0
  9
$DIMASZ
 40
2.5
  9
$DIMEXO
 40
0.625
  9
$DIMDLI
 40
3.75
  9
$DIMRND
 40
0.0
  9
$DIMDLE
 40
0.0
  9
$DIMEXE
 40
1.25
  9
$DIMTP
 40
0.0
  9
$DIMTM
 40
0.0
  9
$DIMTXT
 40
2.5
  9
$DIMCEN
 40
2.5
  9
$DIMTSZ
 40
0.0
  9
$DIMTOL
 70
     0
  9
$DIMLIM
 70
     0
  9
$DIMTIH
 70
     0
  9
$DIMTOH
 70
     0
  9
$DIMSE1
 70
     0
  9
$DIMSE2
 70
     0
  9
$DIMTAD
 70
     1
  9
$DIMZIN
 70
     8
  9
$DIMBLK
  1

  9
$DIMASO
 70
     1
  9
$DIMSHO
 70
     1
  9
$DIMPOST
  1

  9
$DIMAPOST
  1

  9
$DIMALT
 70
     0
  9
$DIMALTD
 70
     3
  9
$DIMALTF
 40
0.03937007874016
  9
$DIMLFAC
 40
1.0
  9
$DIMTOFL
 70
     1
  9
$DIMTVP
 40
0.0
  9
$DIMTIX
 70
     0
  9
$DIMSOXD
 70
     0
  9
$DIMSAH
 70
     0
  9
$DIMBLK1
  1

  9
$DIMBLK2
  1

  9
$DIMSTYLE
  2
ISO-25
  9
$DIMCLRD
 70
     0
  9
$DIMCLRE
 70
     0
  9
$DIMCLRT
 70
     0
  9
$DIMTFAC
 40
1.0
  9
$DIMGAP
 40
0.625
  9
$DIMJUST
 70
     0
  9
$DIMSD1
 70
     0
  9
$DIMSD2
 70
     0
  9
$DIMTOLJ
 70
     0
  9
$DIMTZIN
 70
     8
  9
$DIMALTZ
 70
     0
  9
$DIMALTTZ
 70
     0
  9
$DIMFIT
 70
     3
  9
$DIMUPT
 70
     0
  9
$DIMUNIT
 70
     2
  9
$DIMDEC
 70
     2
  9
$DIMTDEC
 70
     2
  9
$DIMALTU
 70
     2
  9
$DIMALTTD
 70
     3
  9
$DIMTXSTY
  7
STANDARD
  9
$DIMAUNIT
 70
     0
  9
$LUNITS
 70
     2
  9
$LUPREC
 70
     4
  9
$SKETCHINC
 40
1.0
  9
$FILLETRAD
 40
10.0
  9
$AUNITS
 70
     0
  9
$AUPREC
 70
     0
  9
$MENU
  1
.
  9
$ELEVATION
 40
0.0
  9
$PELEVATION
 40
0.0
  9
$THICKNESS
 40
0.0
  9
$LIMCHECK
 70
     0
  9
$BLIPMODE
 70
     0
  9
$CHAMFERA
 40
10.0
  9
$CHAMFERB
 40
10.0
  9
$CHAMFERC
 40
20.0
  9
$CHAMFERD
 40
0.0
  9
$SKPOLY
 70
     0
  9
$TDCREATE
 40
2452626.571661805
  9
$TDUPDATE
 40
2452776.505206365
  9
$TDINDWG
 40
0.0035467593
  9
$TDUSRTIMER
 40
0.0035467593
  9
$USRTIMER
 70
     1
  9
$ANGBASE
 50
0.0
  9
$ANGDIR
 70
     0
  9
$PDMODE
 70
     0
  9
$PDSIZE
 40
0.0
  9
$PLINEWID
 40
0.0
  9
$COORDS
 70
     2
  9
$SPLFRAME
 70
     0
  9
$SPLINETYPE
 70
     6
  9
$SPLINESEGS
 70
     8
  9
$ATTDIA
 70
     0
  9
$ATTREQ
 70
     1
  9
$HANDLING
 70
-16383
  9
$HANDSEED
  5
24F
  9
$SURFTAB1
 70
     6
  9
$SURFTAB2
 70
     6
  9
$SURFTYPE
 70
     6
  9
$SURFU
 70
     6
  9
$SURFV
 70
     6
  9
$UCSNAME
  2

  9
$UCSORG
 10
0.0
 20
0.0
 30
0.0
  9
$UCSXDIR
 10
1.0
 20
0.0
 30
0.0
  9
$UCSYDIR
 10
0.0
 20
1.0
 30
0.0
  9
$PUCSNAME
  2

  9
$PUCSORG
 10
0.0
 20
0.0
 30
0.0
  9
$PUCSXDIR
 10
1.0
 20
0.0
 30
0.0
  9
$PUCSYDIR
 10
0.0
 20
1.0
 30
0.0
  9
$USERI1
 70
     0
  9
$USERI2
 70
     0
  9
$USERI3
 70
     0
  9
$USERI4
 70
     0
  9
$USERI5
 70
     0
  9
$USERR1
 40
0.0
  9
$USERR2
 40
0.0
  9
$USERR3
 40
0.0
  9
$USERR4
 40
0.0
  9
$USERR5
 40
0.0
  9
$WORLDVIEW
 70
     1
  9
$SHADEDGE
 70
     3
  9
$SHADEDIF
 70
    70
  9
$TILEMODE
 70
     1
  9
$MAXACTVP
 70
    64
  9
$PINSBASE
 10
0.0
 20
0.0
 30
0.0
  9
$PLIMCHECK
 70
     0
  9
$PEXTMIN
 10
0.0
 20
0.0
 30
0.0
  9
$PEXTMAX
 10
0.0
 20
0.0
 30
0.0
  9
$PLIMMIN
 10
0.0
 20
0.0
  9
$PLIMMAX
 10
12.0
 20
9.0
  9
$UNITMODE
 70
     0
  9
$VISRETAIN
 70
     1
  9
$PLINEGEN
 70
     0
  9
$PSLTSCALE
 70
     1
  9
$TREEDEPTH
 70
  3020
  9
$PICKSTYLE
 70
     1
  9
$CMLSTYLE
  2
STANDARD
  9
$CMLJUST
 70
     0
  9
$CMLSCALE
 40
20.0
  9
$SAVEIMAGES
 70
     1
  0
ENDSEC
  0
SECTION
  2
CLASSES
  0
CLASS
  1
ACDBDICTIONARYWDFLT
  2
AcDbDictionaryWithDefault
  3
AutoCAD 2000
 90
    32768
280
     0
281
     0
  0
CLASS
  1
ACDBPLACEHOLDER
  2
AcDbPlaceHolder
  3
AutoCAD 2000
 90
    32768
280
     0
281
     0
  0
CLASS
  1
LAYOUT
  2
AcDbLayout
  3
AutoCAD 2000
 90
    32768
280
     0
281
     0
  0
CLASS
  1
LONG_TRANSACTION
  2
AcDbLongTransaction
  3
AutoCAD 2000
 90
    32768
280
     0
281
     0
  0
CLASS
  1
LWPOLYLINE
  2
AcDbPolyline
  3
AutoCAD 2000
 90
    32768
280
     0
281
     1
  0
CLASS
  1
HATCH
  2
AcDbHatch
  3
AutoCAD 2000
 90
    32768
280
     0
281
     1
  0
CLASS
  1
XRECORD
  2
AcDbXrecord
  3
AutoCAD 2000
 90
    32768
280
     0
281
     0
  0
CLASS
  1
LONG_TRANSACTION
  2
AcDbLongTransaction
  3
AutoCAD 2000
 90
    32768
280
     0
281
     0
  0
CLASS
  1
LWPOLYLINE
  2
AcDbPolyline
  3
AutoCAD 2000
 90
    32768
280
     0
281
     1
  0
CLASS
  1
HATCH
  2
AcDbHatch
  3
AutoCAD 2000
 90
    32768
280
     0
281
     1
  0
CLASS
  1
XRECORD
  2
AcDbXrecord
  3
AutoCAD 2000
 90
    32768
280
     0
281
     0
  0
CLASS
  1
LONG_TRANSACTION
  2
AcDbLongTransaction
  3
AutoCAD 2000
 90
    32768
280
     0
281
     0
  0
CLASS
  1
LWPOLYLINE
  2
AcDbPolyline
  3
AutoCAD 2000
 90
    32768
280
     0
281
     1
  0
CLASS
  1
HATCH
  2
AcDbHatch
  3
AutoCAD 2000
 90
    32768
280
     0
281
     1
  0
CLASS
  1
XRECORD
  2
AcDbXrecord
  3
AutoCAD 2000
 90
    32768
280
     0
281
     0
  0
CLASS
  1
DICTIONARYVAR
  2
AcDbDictionaryVar
  3
AutoCAD 2000
 90
    32768
280
     0
281
     0
  0
CLASS
  1
SORTENTSTABLE
  2
AcDbSortentsTable
  3
AutoCAD 2000
 90
    32768
280
     0
281
     0
  0
CLASS
  1
LONG_TRANSACTION
  2
AcDbLongTransaction
  3
AutoCAD 2000
 90
    32768
280
     0
281
     0
  0
CLASS
  1
LWPOLYLINE
  2
AcDbPolyline
  3
AutoCAD 2000
 90
    32768
280
     0
281
     1
  0
CLASS
  1
HATCH
  2
AcDbHatch
  3
AutoCAD 2000
 90
    32768
280
     0
281
     1
  0
CLASS
  1
XRECORD
  2
AcDbXrecord
  3
AutoCAD 2000
 90
    32768
280
     0
281
     0
  0
ENDSEC
  0
SECTION
  2
TABLES
  0
TABLE
  2
VPORT
  5
8
330
0
100
AcDbSymbolTable
 70
     2
  0
VPORT
  5
204
330
8
100
AcDbSymbolTableRecord
100
AcDbViewportTableRecord
  2
*ACTIVE
 70
     0
 10
0.0
 20
0.0
 11
1.0
 21
1.0
 12
2988.418441209089
 22
1859.000005295774
 13
0.0
 23
0.0
 14
10.0
 24
10.0
 15
10.0
 25
10.0
 16
0.0
 26
0.0
 36
1.0
 17
0.0
 27
0.0
 37
0.0
 40
4516.736096723817
 41
1.47227533460803
 42
50.0
 43
0.0
 44
0.0
 50
0.0
 51
0.0
 71
     0
 72
   100
 73
     1
 74
     3
 75
     0
 76
     0
 77
     0
 78
     0
  0
ENDTAB
  0
TABLE
  2
LTYPE
  5
5
330
0
100
AcDbSymbolTable
 70
     1
  0
LTYPE
  5
14
330
5
100
AcDbSymbolTableRecord
100
AcDbLinetypeTableRecord
  2
BYBLOCK
 70
     0
  3

 72
    65
 73
     0
 40
0.0
  0
LTYPE
  5
15
330
5
100
AcDbSymbolTableRecord
100
AcDbLinetypeTableRecord
  2
BYLAYER
 70
     0
  3

 72
    65
 73
     0
 40
0.0
  0
LTYPE
  5
16
330
5
100
AcDbSymbolTableRecord
100
AcDbLinetypeTableRecord
  2
CONTINUOUS
 70
     0
  3
Solid line
 72
    65
 73
     0
 40
0.0
  0
ENDTAB
  0
TABLE
  2
LAYER
  5
2
330
0
100
AcDbSymbolTable
 70
     5
  0
LAYER
  5
10
330
2
100
AcDbSymbolTableRecord
100
AcDbLayerTableRecord
  2
0
 70
     0
 62
     7
  6
CONTINUOUS
  0
LAYER
  5
5D
330
2
100
AcDbSymbolTableRecord
100
AcDbLayerTableRecord
  2
SAFETY
 70
     0
 62
     7
  6
CONTINUOUS
  0
LAYER
  5
5E
330
2
100
AcDbSymbolTableRecord
100
AcDbLayerTableRecord
  2
OBJECT
 70
     0
 62
     7
  6
CONTINUOUS
  0
LAYER
  5
137
330
2
100
AcDbSymbolTableRecord
100
AcDbLayerTableRecord
  2
TEKST
 70
     0
 62
     7
  6
CONTINUOUS
  0
LAYER
  5
180
330
2
100
AcDbSymbolTableRecord
100
AcDbLayerTableRecord
  2
HATCH
 70
     0
 62
     7
  6
CONTINUOUS
  0
ENDTAB
  0
TABLE
  2
STYLE
  5
3
330
0
100
AcDbSymbolTable
 70
     1
  0
STYLE
  5
11
330
3
100
AcDbSymbolTableRecord
100
AcDbTextStyleTableRecord
  2
STANDARD
 70
     0
 40
0.0
 41
1.0
 50
0.0
 71
     0
 42
2.5
  3
txt
  4

  0
ENDTAB
  0
TABLE
  2
VIEW
  5
6
330
0
100
AcDbSymbolTable
 70
     0
  0
ENDTAB
  0
TABLE
  2
UCS
  5
7
330
0
100
AcDbSymbolTable
 70
     0
  0
ENDTAB
  0
TABLE
  2
APPID
  5
9
330
0
100
AcDbSymbolTable
 70
     3
  0
APPID
  5
12
330
9
100
AcDbSymbolTableRecord
100
AcDbRegAppTableRecord
  2
ACAD
 70
     0
  0
APPID
  5
60
330
9
100
AcDbSymbolTableRecord
100
AcDbRegAppTableRecord
  2
AVE_FINISH
 70
     0
  0
APPID
  5
130
330
9
100
AcDbSymbolTableRecord
100
AcDbRegAppTableRecord
  2
CONTENTBLOCKICON
 70
     0
  0
ENDTAB
  0
TABLE
  2
DIMSTYLE
  5
A
330
0
100
AcDbSymbolTable
 70
     2
  0
DIMSTYLE
105
27
330
A
100
AcDbSymbolTableRecord
100
AcDbDimStyleTableRecord
  2
ISO-25
 70
     0
  3

  4

  5

  6

  7

 40
1.0
 41
2.5
 42
0.625
 43
3.75
 44
1.25
 45
0.0
 46
0.0
 47
0.0
 48
0.0
140
2.5
141
2.5
142
0.0
143
0.03937007874016
144
1.0
145
0.0
146
1.0
147
0.625
 71
     0
 72
     0
 73
     0
 74
     0
 75
     0
 76
     0
 77
     1
 78
     8
170
     0
171
     3
172
     1
173
     0
174
     0
175
     0
176
     0
177
     0
178
     0
270
     2
271
     2
272
     2
273
     2
274
     3
340
11
275
     0
280
     0
281
     0
282
     0
283
     0
284
     8
285
     0
286
     0
287
     3
288
     0
  0
DIMSTYLE
105
5F
330
A
100
AcDbSymbolTableRecord
100
AcDbDimStyleTableRecord
  2
STANDARD
 70
     0
  3

  4

  5

  6

  7

 40
1.0
 41
0.18
 42
0.0625
 43
0.38
 44
0.18
 45
0.0
 46
0.0
 47
0.0
 48
0.0
140
0.18
141
0.09
142
0.0
143
25.4
144
1.0
145
0.0
146
1.0
147
0.09
 71
     0
 72
     0
 73
     1
 74
     1
 75
     0
 76
     0
 77
     0
 78
     0
170
     0
171
     2
172
     0
173
     0
174
     0
175
     0
176
     0
177
     0
178
     0
270
     2
271
     4
272
     4
273
     2
274
     2
340
11
275
     0
280
     0
281
     0
282
     0
283
     1
284
     0
285
     0
286
     0
287
     3
288
     0
  0
ENDTAB
  0
TABLE
  2
BLOCK_RECORD
  5
1
330
0
100
AcDbSymbolTable
 70
     4
  0
BLOCK_RECORD
  5
1F
102
{ACAD_XDICTIONARY
360
D5
102
}
330
1
100
AcDbSymbolTableRecord
100
AcDbBlockTableRecord
  2
*MODEL_SPACE
  0
BLOCK_RECORD
  5
50
102
{ACAD_XDICTIONARY
360
D7
102
}
330
1
100
AcDbSymbolTableRecord
100
AcDbBlockTableRecord
  2
*PAPER_SPACE
  0
BLOCK_RECORD
  5
E1
330
1
100
AcDbSymbolTableRecord
100
AcDbBlockTableRecord
  2
ADKC0
1001
ACAD
1000
DesignCenter Data
1002
{
1070
     1
1070
     4
1002
}
1001
CONTENTBLOCKICON
1071
        0
1004
28000000200000002000000001000800000000000004000000000000000000000000000000000000000000004000000080000000FF000000002000004020000080200000FF200000004000004040000080400000FF400000006000004060000080600000FF600000008000004080000080800000FF80000000A0000040A000
1004
0080A00000FFA0000000C0000040C0000080C00000FFC0000000FF000040FF000080FF0000FFFF0000000020004000200080002000FF002000002020004020200080202000FF202000004020004040200080402000FF402000006020004060200080602000FF602000008020004080200080802000FF80200000A0200040A0
1004
200080A02000FFA0200000C0200040C0200080C02000FFC0200000FF200040FF200080FF2000FFFF2000000040004000400080004000FF004000002040004020400080204000FF204000004040004040400080404000FF404000006040004060400080604000FF604000008040004080400080804000FF80400000A0400040
1004
A0400080A04000FFA0400000C0400040C0400080C04000FFC0400000FF400040FF400080FF4000FFFF4000000060004000600080006000FF006000002060004020600080206000FF206000004060004040600080406000FF406000006060004060600080606000FF606000008060004080600080806000FF80600000A06000
1004
40A0600080A06000FFA0600000C0600040C0600080C06000FFC0600000FF600040FF600080FF6000FFFF6000000080004000800080008000FF008000002080004020800080208000FF208000004080004040800080408000FF408000006080004060800080608000FF608000008080004080800080808000FF80800000A080
1004
0040A0800080A08000FFA0800000C0800040C0800080C08000FFC0800000FF800040FF800080FF8000FFFF80000000A0004000A0008000A000FF00A0000020A0004020A0008020A000FF20A0000040A0004040A0008040A000FF40A0000060A0004060A0008060A000FF60A0000080A0004080A0008080A000FF80A00000A0
1004
A00040A0A00080A0A000FFA0A00000C0A00040C0A00080C0A000FFC0A00000FFA00040FFA00080FFA000FFFFA0000000C0004000C0008000C000FF00C0000020C0004020C0008020C000FF20C0000040C0004040C0008040C000FF40C0000060C0004060C0008060C000FF60C0000080C0004080C0008080C000FF80C00000
1004
A0C00040A0C00080A0C000FFA0C00000C0C00040C0C00080C0C000FFC0C00000FFC00040FFC00080FFC000FFFFC0000000FF004000FF008000FF00FF00FF000020FF004020FF008020FF00FF20FF000040FF004040FF008040FF00FF40FF000060FF004060FF008060FF00FF60FF000080FF004080FF008080FF00FF80FF00
1004
00A0FF0040A0FF0080A0FF00FFA0FF0000C0FF0040C0FF0080C0FF00FFC0FF0000FFFF0040FFFF0080FFFF00FFFFFF0000000000000000000000000000000000000000000000000000000000000000000000000000000000000000000000000000000000000000000000000000000000000000000000000000000000000000
1004
00000000000000000000000000000000000000000000000000000000000000000000000000000000000000000000000000000000000000000000000000000000000000000000000000000000000000000000000000000000000000000000000000000000000000000000000000000000000000000000000000000000000000
1004
00000000000000000000000000000000000000000000000000FFFFFFFFFFFF000000000000000000000000000000000000000000000000FFFF000000000000FFFFFF0000000000000000000000000000000000000000FF0000000000000000000000FFFFFFFF000000000000000000000000000000FF000000000000000000
1004
00000000000000FFFFFFFFFFFFFFFFFFFFFF000000FF000000000000000000000000000000000000000000000000000000FF000000FF000000000000000000000000000000000000000000000000000000FF000000FF000000001C1C1C1C1C1C0000000000000000000000000000000000FF0000FF0000000000FC1C1C1C1C
1004
FCFCFCFCFCFCFCFCFCFC0000000000000000FF0000FF00000000001C1C1CFF1CFCFCFCFCFCFCFCFCFC000000000000000000FF0000FF00000000001C1CFF1C1CFCFCFCFCFCFCFCFCFC000000000000000000FF0000FF0000000000FC1C1C1C1CFCFCFCFCFCFCFCFCFCFC0000000000000000FF000000FF000000001C1C1C1C
1004
1C1C0000000000000000000000000000000000FF000000FF000000000000000000000000000000000000000000000000000000FF000000FF000000000000000000000000000000000000000000000000000000FF00000000FF0000000000000000000000000000000000000000000000000000FF0000000000FF0000000000
1004
00000000000000000000FFFFFFFFFFFFFFFFFFFFFF000000000000FF00000000000000000000FFFFFFFF000000000000000000000000000000000000FFFFFFFFFFFFFFFFFFFF000000000000000000000000000000000000000000000000000000000000000000000000000000000000000000000000000000000000000000
1004
00000000000000000000000000000000000000000000000000000000000000000000000000000000000000000000000000000000000000000000000000000000000000000000000000000000000000000000000000000000000000000000000000000000000000000000000000000000000000000000000000000000000000
1004
0000000000000000000000000000000000000000000000000000000000000000000000000000000000000000000000000000000000000000
  0
BLOCK_RECORD
  5
208
330
1
100
AcDbSymbolTableRecord
100
AcDbBlockTableRecord
  2
*U1
  0
BLOCK_RECORD
  5
20F
330
1
100
AcDbSymbolTableRecord
100
AcDbBlockTableRecord
  2
*U2
  0
BLOCK_RECORD
  5
229
330
1
100
AcDbSymbolTableRecord
100
AcDbBlockTableRecord
  2
*U3
  0
ENDTAB
  0
ENDSEC
  0
SECTION
  2
BLOCKS
  0
BLOCK
  5
20
330
1F
100
AcDbEntity
  8
0
100
AcDbBlockBegin
  2
*MODEL_SPACE
 70
     0
 10
0.0
 20
0.0
 30
0.0
  3
*MODEL_SPACE
  1

  0
ENDBLK
  5
21
330
1F
100
AcDbEntity
  8
0
100
AcDbBlockEnd
  0
BLOCK
  5
52
330
50
100
AcDbEntity
 67
     1
  8
0
100
AcDbBlockBegin
  2
*PAPER_SPACE
 70
     0
 10
0.0
 20
0.0
 30
0.0
  3
*PAPER_SPACE
  1

  0
ENDBLK
  5
53
330
50
100
AcDbEntity
 67
     1
  8
0
100
AcDbBlockEnd
  0
BLOCK
  5
E2
330
E1
100
AcDbEntity
  8
0
100
AcDbBlockBegin
  2
ADKC0
 70
     0
 10
0.0
 20
0.0
 30
0.0
  3
ADKC0
  1

  0
INSERT
  5
1D9
330
E1
100
AcDbEntity
  8
HATCH
  6
CONTINUOUS
 62
     2
100
AcDbBlockReference
  2
*U1
 10
0.0
 20
0.0
 30
0.0
1001
ACAD
1002
{
1000
R14_HATCH_DATA
1000
1D9
1011
1.0
1021
0.0
1031
0.0
1011
0.0
1021
1.0
1031
0.0
1011
0.0
1021
0.0
1031
1.0
1040
0.0
1010
0.0
1020
0.0
1030
1.0
1000
SOLID
1070
     1
1070
     0
1071
        2
1071
        7
1070
     0
1070
     1
1071
        4
1040
1273.592036929219
1040
2160.212211108142
1040
1273.592036929219
1040
2193.577262495802
1040
1220.174890761018
1040
2193.577262495802
1040
1220.174890761018
1040
2160.212211108142
1071
        0
1071
        7
1070
     0
1070
     1
1071
        4
1040
1273.592036929219
1040
1526.27633675459
1040
1273.592036929219
1040
1559.641388142249
1040
1220.174890761018
1040
1559.641388142249
1040
1220.174890761018
1040
1526.27633675459
1071
        0
1070
     0
1070
     1
1040
2.714099366383136
1071
        2
1040
1237.64504305159
1040
2172.939174442566
1040
0.0
1040
1262.08689272515
1040
1535.12581995919
1040
0.0
1002
}
  0
INSERT
  5
1DA
330
E1
100
AcDbEntity
  8
HATCH
  6
CONTINUOUS
 62
     2
100
AcDbBlockReference
  2
*U2
 10
0.0
 20
0.0
 30
0.0
1001
ACAD
1002
{
1000
R14_HATCH_DATA
1000
1DA
1011
1.0
1021
0.0
1031
0.0
1011
0.0
1021
1.0
1031
0.0
1011
0.0
1021
0.0
1031
1.0
1040
0.0
1010
0.0
1020
0.0
1030
1.0
1000
SOLID
1070
     1
1070
     0
1071
        5
1071
        7
1070
     0
1070
     1
1071
        4
1040
4298.33782499241
1040
2115.193184356025
1040
4298.33782499241
1040
2140.193184356025
1040
2445.430642745817
1040
2140.193184356025
1040
2445.430642745817
1040
2115.193184356025
1071
        0
1071
        7
1070
     0
1070
     1
1071
        8
1040
4178.591223377813
1040
2040.193184356025
1040
4188.164972391613
1040
2046.771062913215
1040
4218.212114010011
1040
2083.472610258561
1040
4218.21211401001
1040
2100.155130851791
1040
4298.33782499241
1040
2100.155130851792
1040
4298.33782499241
1040
2115.193184356025
1040
2445.430642745817
1040
2115.193184356025
1040
2445.430642745816
1040
2040.193184356025
1071
        0
1071
        7
1070
     0
1070
     1
1071
        9
1040
2445.430642745817
1040
2040.193184356025
1040
2445.430642745817
1040
1679.660414894367
1040
4178.591223377814
1040
1679.660414894367
1040
4134.747826223411
1040
1709.784093883723
1040
4114.716398477813
1040
1769.841174140071
1040
4114.716398477813
1040
1859.926799625196
1040
4114.716398477813
1040
1950.012425110322
1040
4134.747826223409
1040
2010.069505366668
1040
4178.591223377814
1040
2040.193184356025
1071
        0
1071
        7
1070
     0
1070
     1
1071
        8
1040
4298.33782499241
1040
1604.660414894367
1040
4298.33782499241
1040
1619.698468398598
1040
4218.21211401001
1040
1619.698468398598
1040
4218.21211401001
1040
1636.380988991829
1040
4188.164972391613
1040
1673.082536337175
1040
4178.591223377813
1040
1679.660414894367
1040
2445.430642745817
1040
1679.660414894367
1040
2445.430642745817
1040
1604.660414894367
1071
        0
1071
        7
1070
     0
1070
     1
1071
        4
1040
4298.337824992409
1040
1579.660414894367
1040
4298.33782499241
1040
1604.660414894367
1040
2445.430642745817
1040
1604.660414894367
1040
2445.430642745817
1040
1579.660414894368
1071
        0
1070
     0
1070
     1
1040
2.581423734631524
1071
        5
1040
3695.579382605465
1040
2118.661460417905
1040
0.0
1040
3690.413373163275
1040
2067.032989728101
1040
0.0
1040
3677.498367939166
1040
1966.35744816147
1040
0.0
1040
3667.166349054787
1040
1628.190926439736
1040
0.0
1040
3662.000339612597
1040
1586.888154881893
1040
0.0
1002
}
  0
INSERT
  5
1DB
330
E1
100
AcDbEntity
  8
HATCH
  6
CONTINUOUS
 62
     3
100
AcDbBlockReference
  2
*U3
 10
0.0
 20
0.0
 30
0.0
1001
ACAD
1002
{
1000
R14_HATCH_DATA
1000
1DB
1011
1.0
1021
0.0
1031
0.0
1011
0.0
1021
1.0
1031
0.0
1011
0.0
1021
0.0
1031
1.0
1040
0.0
1010
0.0
1020
0.0
1030
1.0
1000
SOLID
1070
     1
1070
     0
1071
        8
1071
        7
1070
     0
1070
     1
1071
        5
1040
2445.430642745817
1040
2450.488104114429
1040
2145.430642745818
1040
2148.111325490876
1040
2145.430642745817
1040
1571.742273759517
1040
2445.430642745817
1040
1269.365495135964
1040
2445.430642745817
1040
1579.660414894368
1071
        0
1071
        7
1070
     0
1070
     1
1071
        6
1040
2145.430642745818
1040
2150.488104114429
1040
2145.430642745818
1040
2148.111325490876
1040
2445.430642745817
1040
2450.488104114429
1040
1273.592036929219
1040
2450.488104114429
1040
1573.59203692922
1040
2148.111325490874
1040
1573.59203692922
1040
2150.488104114429
1071
        0
1071
        7
1070
     0
1070
     1
1071
        5
1040
1573.59203692922
1040
2150.488104114429
1040
1573.59203692922
1040
2148.111325490874
1040
1859.511339837518
1040
1859.926799625196
1040
2145.430642745818
1040
2148.111325490876
1040
2145.430642745818
1040
2150.488104114429
1071
        0
1071
        7
1070
     0
1070
     1
1071
        4
1040
1859.511339837517
1040
1859.926799625196
1040
2145.430642745818
1040
1571.742273759516
1040
2145.430642745818
1040
1579.660414894368
1040
2145.430642745818
1040
2148.111325490876
1071
        0
1071
        7
1070
     0
1070
     1
1071
        5
1040
2145.430642745818
1040
1569.365495135963
1040
2145.430642745818
1040
1571.742273759517
1040
1859.511339837517
1040
1859.926799625196
1040
1573.592036929219
1040
1571.742273759518
1040
1573.592036929219
1040
1569.365495135964
1071
        0
1071
        7
1070
     0
1070
     1
1071
        6
1040
1573.592036929219
1040
1569.365495135964
1040
1573.592036929219
1040
1571.742273759518
1040
1273.592036929219
1040
1269.365495135964
1040
2445.430642745817
1040
1269.365495135964
1040
2145.430642745817
1040
1571.742273759517
1040
2145.430642745818
1040
1569.365495135964
1071
        0
1071
        7
1070
     0
1070
     1
1071
        4
1040
1573.59203692922
1040
2148.111325490874
1040
1273.592036929219
1040
2450.488104114429
1040
1273.592036929219
1040
1269.365495135964
1040
1573.592036929219
1040
1571.742273759518
1071
        0
1071
        7
1070
     0
1070
     1
1071
        3
1040
1573.592036929219
1040
1571.742273759518
1040
1859.511339837517
1040
1859.926799625196
1040
1573.59203692922
1040
2148.111325490874
1071
        0
1070
     0
1070
     1
1040
4.374236648357639
1071
        8
1040
2303.194937625812
1040
2083.712957565884
1040
0.0
1040
2018.695393997782
1040
2267.430892603468
1040
0.0
1040
1944.287807474982
1040
2088.087179251295
1040
0.0
1040
2023.072291389442
1040
1865.001124194946
1040
0.0
1040
1852.372557860078
1040
1685.657410842777
1040
0.0
1040
1799.849568583769
1040
1501.939475805193
1040
0.0
1040
1467.203933071097
1040
1624.418107486919
1040
0.0
1040
1642.280600754849
1040
1799.387574183667
1040
0.0
1002
}
  0
LINE
  5
1DC
330
E1
100
AcDbEntity
  8
OBJECT
100
AcDbLine
 10
2145.430642745818
 20
1569.365495135964
 30
0.0
 11
2145.430642745818
 21
2150.488104114429
 31
0.0
  0
LINE
  5
1DD
330
E1
100
AcDbEntity
  8
OBJECT
100
AcDbLine
 10
2445.430642745817
 20
2450.488104114429
 30
0.0
 11
1273.592036929219
 21
1269.365495135964
 31
0.0
  0
LINE
  5
1DE
330
E1
100
AcDbEntity
  8
OBJECT
100
AcDbLine
 10
1273.592036929219
 20
2450.488104114429
 30
0.0
 11
2445.430642745817
 21
1269.365495135964
 31
0.0
  0
POLYLINE
  5
1DF
330
E1
100
AcDbEntity
  8
SAFETY
 48
5.0
100
AcDb2dPolyline
 66
     1
 10
0.0
 20
0.0
 30
0.0
 70
     1
1001
AVE_FINISH
1002
{
1070
     0
1005
0
1002
}
  0
VERTEX
  5
242
330
1DF
100
AcDbEntity
  8
SAFETY
 48
5.0
100
AcDbVertex
100
AcDb2dVertex
 10
6287.497027471498
 20
3225.999995192506
 30
0.0
  0
VERTEX
  5
243
330
1DF
100
AcDbEntity
  8
SAFETY
 48
5.0
100
AcDbVertex
100
AcDb2dVertex
 10
4287.4970274715
 20
3225.999995192506
 30
0.0
  0
VERTEX
  5
244
330
1DF
100
AcDbEntity
  8
SAFETY
 48
5.0
100
AcDbVertex
100
AcDb2dVertex
 10
2598.506276613308
 20
3668.935889853232
 30
0.0
 42
0.0642063524682368
  0
VERTEX
  5
245
330
1DF
100
AcDbEntity
  8
SAFETY
 48
5.0
100
AcDbVertex
100
AcDb2dVertex
 10
2217.999996001434
 20
3717.999995192506
 30
0.0
  0
VERTEX
  5
246
330
1DF
100
AcDbEntity
  8
SAFETY
 48
5.0
100
AcDbVertex
100
AcDb2dVertex
 10
1499.999996001434
 20
3717.999995192506
 30
0.0
 42
0.4142135623730951
  0
VERTEX
  5
247
330
1DF
100
AcDbEntity
  8
SAFETY
 48
5.0
100
AcDbVertex
100
AcDb2dVertex
 10
-0.000003998565262
 20
2217.999995192506
 30
0.0
  0
VERTEX
  5
248
330
1DF
100
AcDbEntity
  8
SAFETY
 48
5.0
100
AcDbVertex
100
AcDb2dVertex
 10
-0.000003998565262
 20
1499.999995192506
 30
0.0
 42
0.4142135623730951
  0
VERTEX
  5
249
330
1DF
100
AcDbEntity
  8
SAFETY
 48
5.0
100
AcDbVertex
100
AcDb2dVertex
 10
1499.999996001434
 20
-0.0000048074925871
 30
0.0
  0
VERTEX
  5
24A
330
1DF
100
AcDbEntity
  8
SAFETY
 48
5.0
100
AcDbVertex
100
AcDb2dVertex
 10
2217.999996001434
 20
-0.0000048074930419
 30
0.0
 42
0.093366984891703
  0
VERTEX
  5
24B
330
1DF
100
AcDbEntity
  8
SAFETY
 48
5.0
100
AcDbVertex
100
AcDb2dVertex
 10
2763.761691306134
 20
102.8084650370516
 30
0.0
  0
VERTEX
  5
24C
330
1DF
100
AcDbEntity
  8
SAFETY
 48
5.0
100
AcDbVertex
100
AcDb2dVertex
 10
4287.4970274715
 20
697.9998631474907
 30
0.0
  0
VERTEX
  5
24D
330
1DF
100
AcDbEntity
  8
SAFETY
 48
5.0
100
AcDbVertex
100
AcDb2dVertex
 10
6287.497027471502
 20
697.9998631474907
 30
0.0
  0
SEQEND
  5
24E
330
1DF
100
AcDbEntity
  8
SAFETY
 48
5.0
  0
LINE
  5
1E0
330
E1
100
AcDbEntity
  8
OBJECT
100
AcDbLine
 10
4298.33782499241
 20
1579.660414894368
 30
0.0
 11
2445.430642745817
 21
1579.660414894368
 31
0.0
  0
LINE
  5
1E1
330
E1
100
AcDbEntity
  8
OBJECT
100
AcDbLine
 10
4298.33782499241
 20
2140.193184356025
 30
0.0
 11
2445.430642745817
 21
2140.193184356025
 31
0.0
  0
LINE
  5
1E2
330
E1
100
AcDbEntity
  8
OBJECT
100
AcDbLine
 10
4178.591223377813
 20
2040.193184356025
 30
0.0
 11
2445.430642745817
 21
2040.193184356025
 31
0.0
  0
LINE
  5
1E3
330
E1
100
AcDbEntity
  8
OBJECT
100
AcDbLine
 10
4178.591223377813
 20
1679.660414894367
 30
0.0
 11
2445.430642745817
 21
1679.660414894367
 31
0.0
  0
LINE
  5
1E4
330
E1
100
AcDbEntity
  8
OBJECT
100
AcDbLine
 10
4298.33782499241
 20
2115.193184356025
 30
0.0
 11
2445.430642745817
 21
2115.193184356025
 31
0.0
  0
LINE
  5
1E5
330
E1
100
AcDbEntity
  8
OBJECT
100
AcDbLine
 10
4298.33782499241
 20
1604.660414894367
 30
0.0
 11
2445.430642745817
 21
1604.660414894367
 31
0.0
  0
LINE
  5
1E6
330
E1
100
AcDbEntity
  8
OBJECT
100
AcDbLine
 10
2445.430642745817
 20
1579.660414894368
 30
0.0
 11
2445.430642745817
 21
2450.488104114429
 31
0.0
  0
LINE
  5
1E7
330
E1
100
AcDbEntity
  8
OBJECT
100
AcDbLine
 10
1273.592036929219
 20
2450.488104114429
 30
0.0
 11
1273.592036929219
 21
1269.365495135964
 31
0.0
  0
LINE
  5
1E8
330
E1
100
AcDbEntity
  8
OBJECT
100
AcDbLine
 10
1573.59203692922
 20
2150.488104114429
 30
0.0
 11
1573.592036929219
 21
1569.365495135964
 31
0.0
  0
LINE
  5
1E9
330
E1
100
AcDbEntity
  8
OBJECT
100
AcDbLine
 10
2445.430642745817
 20
1269.365495135964
 30
0.0
 11
1273.592036929219
 21
1269.365495135964
 31
0.0
  0
LINE
  5
1EA
330
E1
100
AcDbEntity
  8
OBJECT
100
AcDbLine
 10
2145.430642745818
 20
1569.365495135964
 30
0.0
 11
1573.592036929219
 21
1569.365495135964
 31
0.0
  0
LINE
  5
1EB
330
E1
100
AcDbEntity
  8
OBJECT
100
AcDbLine
 10
1273.592036929219
 20
1526.27633675459
 30
0.0
 11
1220.174890761018
 21
1526.27633675459
 31
0.0
  0
LINE
  5
1EC
330
E1
100
AcDbEntity
  8
OBJECT
100
AcDbLine
 10
1220.174890761018
 20
1559.641388142249
 30
0.0
 11
1273.592036929219
 21
1559.641388142249
 31
0.0
  0
LINE
  5
1ED
330
E1
100
AcDbEntity
  8
OBJECT
100
AcDbLine
 10
1220.174890761018
 20
1526.27633675459
 30
0.0
 11
1220.174890761018
 21
1559.641388142249
 31
0.0
  0
LINE
  5
1EE
330
E1
100
AcDbEntity
  8
OBJECT
100
AcDbLine
 10
2145.430642745818
 20
1579.660414894368
 30
0.0
 11
2145.430642745818
 21
1569.365495135964
 31
0.0
  0
LINE
  5
1EF
330
E1
100
AcDbEntity
  8
OBJECT
100
AcDbLine
 10
2445.430642745817
 20
1579.660414894368
 30
0.0
 11
2445.430642745817
 21
1269.365495135964
 31
0.0
  0
LINE
  5
1F0
330
E1
100
AcDbEntity
  8
OBJECT
100
AcDbLine
 10
2445.430642745817
 20
2450.488104114429
 30
0.0
 11
1273.592036929219
 21
2450.488104114429
 31
0.0
  0
LINE
  5
1F1
330
E1
100
AcDbEntity
  8
OBJECT
100
AcDbLine
 10
2145.430642745818
 20
2150.488104114429
 30
0.0
 11
1573.59203692922
 21
2150.488104114429
 31
0.0
  0
LINE
  5
1F2
330
E1
100
AcDbEntity
  8
OBJECT
100
AcDbLine
 10
1220.174890761018
 20
2160.212211108142
 30
0.0
 11
1273.592036929219
 21
2160.212211108142
 31
0.0
  0
LINE
  5
1F3
330
E1
100
AcDbEntity
  8
OBJECT
100
AcDbLine
 10
1273.592036929219
 20
2193.577262495802
 30
0.0
 11
1220.174890761018
 21
2193.577262495802
 31
0.0
  0
LINE
  5
1F4
330
E1
100
AcDbEntity
  8
OBJECT
100
AcDbLine
 10
1220.174890761018
 20
2193.577262495802
 30
0.0
 11
1220.174890761018
 21
2160.212211108142
 31
0.0
  0
LINE
  5
1F5
330
E1
100
AcDbEntity
  8
OBJECT
100
AcDbLine
 10
4114.716398477813
 20
1859.926799625196
 30
0.0
 11
4114.716398477813
 21
1769.841174140072
 31
0.0
  0
LINE
  5
1F6
330
E1
100
AcDbEntity
  8
OBJECT
100
AcDbLine
 10
4114.716398477813
 20
1769.841174140072
 30
0.0
 11
4134.747826223411
 21
1709.784093883723
 31
0.0
  0
LINE
  5
1F7
330
E1
100
AcDbEntity
  8
OBJECT
100
AcDbLine
 10
4218.21211401001
 20
1619.698468398598
 30
0.0
 11
4298.33782499241
 21
1619.698468398598
 31
0.0
  0
LINE
  5
1F8
330
E1
100
AcDbEntity
  8
OBJECT
100
AcDbLine
 10
4188.164972391613
 20
1673.082536337176
 30
0.0
 11
4218.21211401001
 21
1636.38098899183
 31
0.0
  0
LINE
  5
1F9
330
E1
100
AcDbEntity
  8
OBJECT
100
AcDbLine
 10
4218.21211401001
 20
1636.38098899183
 30
0.0
 11
4218.21211401001
 21
1619.698468398598
 31
0.0
  0
LINE
  5
1FA
330
E1
100
AcDbEntity
  8
OBJECT
100
AcDbLine
 10
4134.747826223411
 20
1709.784093883723
 30
0.0
 11
4188.164972391613
 21
1673.082536337176
 31
0.0
  0
LINE
  5
1FB
330
E1
100
AcDbEntity
  8
OBJECT
100
AcDbLine
 10
4298.33782499241
 20
1619.698468398598
 30
0.0
 11
4298.33782499241
 21
1579.660414894368
 31
0.0
  0
LINE
  5
1FC
330
E1
100
AcDbEntity
  8
OBJECT
100
AcDbLine
 10
4114.716398477813
 20
1950.012425110321
 30
0.0
 11
4134.747826223411
 21
2010.069505366669
 31
0.0
  0
LINE
  5
1FD
330
E1
100
AcDbEntity
  8
OBJECT
100
AcDbLine
 10
4114.716398477813
 20
1859.926799625196
 30
0.0
 11
4114.716398477813
 21
1950.012425110321
 31
0.0
  0
LINE
  5
1FE
330
E1
100
AcDbEntity
  8
OBJECT
100
AcDbLine
 10
4218.21211401001
 20
2100.155130851792
 30
0.0
 11
4298.33782499241
 21
2100.155130851792
 31
0.0
  0
LINE
  5
1FF
330
E1
100
AcDbEntity
  8
OBJECT
100
AcDbLine
 10
4188.164972391613
 20
2046.771062913216
 30
0.0
 11
4218.21211401001
 21
2083.472610258561
 31
0.0
  0
LINE
  5
200
330
E1
100
AcDbEntity
  8
OBJECT
100
AcDbLine
 10
4134.747826223411
 20
2010.069505366669
 30
0.0
 11
4188.164972391613
 21
2046.771062913216
 31
0.0
  0
LINE
  5
201
330
E1
100
AcDbEntity
  8
OBJECT
100
AcDbLine
 10
4218.21211401001
 20
2083.472610258561
 30
0.0
 11
4218.21211401001
 21
2100.155130851792
 31
0.0
  0
LINE
  5
202
330
E1
100
AcDbEntity
  8
OBJECT
100
AcDbLine
 10
4298.33782499241
 20
2100.155130851792
 30
0.0
 11
4298.33782499241
 21
2140.193184356025
 31
0.0
  0
ENDBLK
  5
E3
330
E1
100
AcDbEntity
  8
0
100
AcDbBlockEnd
  0
BLOCK
  5
20D
330
208
100
AcDbEntity
  8
0
100
AcDbBlockBegin
  2
*U1
 70
     1
 10
0.0
 20
0.0
 30
0.0
  3
*U1
  1

  0
SOLID
  5
209
330
208
100
AcDbEntity
  8
HATCH
  6
CONTINUOUS
 62
     2
100
AcDbTrace
 10
1220.174890761018
 20
1559.641388142249
 30
0.0
 11
1220.174890761018
 21
1526.27633675459
 31
0.0
 12
1273.592036929219
 22
1526.27633675459
 32
0.0
 13
1273.592036929219
 23
1526.27633675459
 33
0.0
210
0.0
220
0.0
230
1.0
  0
SOLID
  5
20A
330
208
100
AcDbEntity
  8
HATCH
  6
CONTINUOUS
 62
     2
100
AcDbTrace
 10
1273.592036929219
 20
1559.641388142249
 30
0.0
 11
1220.174890761018
 21
1559.641388142249
 31
0.0
 12
1273.592036929219
 22
1526.27633675459
 32
0.0
 13
1273.592036929219
 23
1526.27633675459
 33
0.0
210
0.0
220
0.0
230
1.0
  0
SOLID
  5
20B
330
208
100
AcDbEntity
  8
HATCH
  6
CONTINUOUS
 62
     2
100
AcDbTrace
 10
1220.174890761018
 20
2193.577262495802
 30
0.0
 11
1220.174890761018
 21
2160.212211108142
 31
0.0
 12
1273.592036929219
 22
2160.212211108142
 32
0.0
 13
1273.592036929219
 23
2160.212211108142
 33
0.0
210
0.0
220
0.0
230
1.0
  0
SOLID
  5
20C
330
208
100
AcDbEntity
  8
HATCH
  6
CONTINUOUS
 62
     2
100
AcDbTrace
 10
1273.592036929219
 20
2193.577262495802
 30
0.0
 11
1220.174890761018
 21
2193.577262495802
 31
0.0
 12
1273.592036929219
 22
2160.212211108142
 32
0.0
 13
1273.592036929219
 23
2160.212211108142
 33
0.0
210
0.0
220
0.0
230
1.0
  0
ENDBLK
  5
20E
330
208
100
AcDbEntity
  8
0
100
AcDbBlockEnd
  0
BLOCK
  5
227
330
20F
100
AcDbEntity
  8
0
100
AcDbBlockBegin
  2
*U2
 70
     1
 10
0.0
 20
0.0
 30
0.0
  3
*U2
  1

  0
SOLID
  5
210
330
20F
100
AcDbEntity
  8
HATCH
  6
CONTINUOUS
 62
     2
100
AcDbTrace
 10
4298.33782499241
 20
2115.193184356025
 30
0.0
 11
4298.33782499241
 21
2140.193184356025
 31
0.0
 12
2445.430642745817
 22
2115.193184356025
 32
0.0
 13
2445.430642745817
 23
2115.193184356025
 33
0.0
  0
SOLID
  5
211
330
20F
100
AcDbEntity
  8
HATCH
  6
CONTINUOUS
 62
     2
100
AcDbTrace
 10
2445.430642745817
 20
2140.193184356025
 30
0.0
 11
2445.430642745817
 21
2115.193184356025
 31
0.0
 12
4298.33782499241
 22
2140.193184356025
 32
0.0
 13
4298.33782499241
 23
2140.193184356025
 33
0.0
  0
SOLID
  5
212
330
20F
100
AcDbEntity
  8
HATCH
  6
CONTINUOUS
 62
     2
100
AcDbTrace
 10
4188.164972391613
 20
2046.771062913215
 30
0.0
 11
2445.430642745816
 21
2040.193184356025
 31
0.0
 12
4178.591223377813
 22
2040.193184356025
 32
0.0
 13
4178.591223377813
 23
2040.193184356025
 33
0.0
  0
SOLID
  5
213
330
20F
100
AcDbEntity
  8
HATCH
  6
CONTINUOUS
 62
     2
100
AcDbTrace
 10
4218.212114010011
 20
2083.472610258561
 30
0.0
 11
2445.430642745816
 21
2040.193184356025
 31
0.0
 12
4188.164972391613
 22
2046.771062913215
 32
0.0
 13
4188.164972391613
 23
2046.771062913215
 33
0.0
210
0.0
220
0.0
230
1.0
  0
SOLID
  5
214
330
20F
100
AcDbEntity
  8
HATCH
  6
CONTINUOUS
 62
     2
100
AcDbTrace
 10
4218.21211401001
 20
2100.155130851791
 30
0.0
 11
2445.430642745816
 21
2040.193184356025
 31
0.0
 12
4218.212114010011
 22
2083.472610258561
 32
0.0
 13
4218.212114010011
 23
2083.472610258561
 33
0.0
210
0.0
220
0.0
230
1.0
  0
SOLID
  5
215
330
20F
100
AcDbEntity
  8
HATCH
  6
CONTINUOUS
 62
     2
100
AcDbTrace
 10
2445.430642745817
 20
2115.193184356025
 30
0.0
 11
4218.21211401001
 21
2100.155130851791
 31
0.0
 12
4298.33782499241
 22
2100.155130851792
 32
0.0
 13
4298.33782499241
 23
2100.155130851792
 33
0.0
210
0.0
220
0.0
230
1.0
  0
SOLID
  5
216
330
20F
100
AcDbEntity
  8
HATCH
  6
CONTINUOUS
 62
     2
100
AcDbTrace
 10
2445.430642745817
 20
2115.193184356025
 30
0.0
 11
2445.430642745816
 21
2040.193184356025
 31
0.0
 12
4218.21211401001
 22
2100.155130851791
 32
0.0
 13
4218.21211401001
 23
2100.155130851791
 33
0.0
  0
SOLID
  5
217
330
20F
100
AcDbEntity
  8
HATCH
  6
CONTINUOUS
 62
     2
100
AcDbTrace
 10
4298.33782499241
 20
2115.193184356025
 30
0.0
 11
2445.430642745817
 21
2115.193184356025
 31
0.0
 12
4298.33782499241
 22
2100.155130851792
 32
0.0
 13
4298.33782499241
 23
2100.155130851792
 33
0.0
210
0.0
220
0.0
230
1.0
  0
SOLID
  5
218
330
20F
100
AcDbEntity
  8
HATCH
  6
CONTINUOUS
 62
     2
100
AcDbTrace
 10
4134.747826223411
 20
1709.784093883723
 30
0.0
 11
2445.430642745817
 21
1679.660414894367
 31
0.0
 12
4178.591223377814
 22
1679.660414894367
 32
0.0
 13
4178.591223377814
 23
1679.660414894367
 33
0.0
210
0.0
220
0.0
230
1.0
  0
SOLID
  5
219
330
20F
100
AcDbEntity
  8
HATCH
  6
CONTINUOUS
 62
     2
100
AcDbTrace
 10
4114.716398477813
 20
1769.841174140071
 30
0.0
 11
2445.430642745817
 21
1679.660414894367
 31
0.0
 12
4134.747826223411
 22
1709.784093883723
 32
0.0
 13
4134.747826223411
 23
1709.784093883723
 33
0.0
210
0.0
220
0.0
230
1.0
  0
SOLID
  5
21A
330
20F
100
AcDbEntity
  8
HATCH
  6
CONTINUOUS
 62
     2
100
AcDbTrace
 10
4114.716398477813
 20
1859.926799625196
 30
0.0
 11
2445.430642745817
 21
1679.660414894367
 31
0.0
 12
4114.716398477813
 22
1769.841174140071
 32
0.0
 13
4114.716398477813
 23
1769.841174140071
 33
0.0
210
0.0
220
0.0
230
1.0
  0
SOLID
  5
21B
330
20F
100
AcDbEntity
  8
HATCH
  6
CONTINUOUS
 62
     2
100
AcDbTrace
 10
4114.716398477813
 20
1950.012425110322
 30
0.0
 11
2445.430642745817
 21
1679.660414894367
 31
0.0
 12
4114.716398477813
 22
1859.926799625196
 32
0.0
 13
4114.716398477813
 23
1859.926799625196
 33
0.0
210
0.0
220
0.0
230
1.0
  0
SOLID
  5
21C
330
20F
100
AcDbEntity
  8
HATCH
  6
CONTINUOUS
 62
     2
100
AcDbTrace
 10
4134.747826223409
 20
2010.069505366668
 30
0.0
 11
2445.430642745817
 21
1679.660414894367
 31
0.0
 12
4114.716398477813
 22
1950.012425110322
 32
0.0
 13
4114.716398477813
 23
1950.012425110322
 33
0.0
210
0.0
220
0.0
230
1.0
  0
SOLID
  5
21D
330
20F
100
AcDbEntity
  8
HATCH
  6
CONTINUOUS
 62
     2
100
AcDbTrace
 10
2445.430642745817
 20
2040.193184356025
 30
0.0
 11
2445.430642745817
 21
1679.660414894367
 31
0.0
 12
4134.747826223409
 22
2010.069505366668
 32
0.0
 13
4134.747826223409
 23
2010.069505366668
 33
0.0
  0
SOLID
  5
21E
330
20F
100
AcDbEntity
  8
HATCH
  6
CONTINUOUS
 62
     2
100
AcDbTrace
 10
4178.591223377814
 20
2040.193184356025
 30
0.0
 11
2445.430642745817
 21
2040.193184356025
 31
0.0
 12
4134.747826223409
 22
2010.069505366668
 32
0.0
 13
4134.747826223409
 23
2010.069505366668
 33
0.0
210
0.0
220
0.0
230
1.0
  0
SOLID
  5
21F
330
20F
100
AcDbEntity
  8
HATCH
  6
CONTINUOUS
 62
     2
100
AcDbTrace
 10
4298.33782499241
 20
1619.698468398598
 30
0.0
 11
2445.430642745817
 21
1604.660414894367
 31
0.0
 12
4298.33782499241
 22
1604.660414894367
 32
0.0
 13
4298.33782499241
 23
1604.660414894367
 33
0.0
210
0.0
220
0.0
230
1.0
  0
SOLID
  5
220
330
20F
100
AcDbEntity
  8
HATCH
  6
CONTINUOUS
 62
     2
100
AcDbTrace
 10
4218.21211401001
 20
1619.698468398598
 30
0.0
 11
2445.430642745817
 21
1604.660414894367
 31
0.0
 12
4298.33782499241
 22
1619.698468398598
 32
0.0
 13
4298.33782499241
 23
1619.698468398598
 33
0.0
210
0.0
220
0.0
230
1.0
  0
SOLID
  5
221
330
20F
100
AcDbEntity
  8
HATCH
  6
CONTINUOUS
 62
     2
100
AcDbTrace
 10
4218.21211401001
 20
1636.380988991829
 30
0.0
 11
2445.430642745817
 21
1604.660414894367
 31
0.0
 12
4218.21211401001
 22
1619.698468398598
 32
0.0
 13
4218.21211401001
 23
1619.698468398598
 33
0.0
210
0.0
220
0.0
230
1.0
  0
SOLID
  5
222
330
20F
100
AcDbEntity
  8
HATCH
  6
CONTINUOUS
 62
     2
100
AcDbTrace
 10
4188.164972391613
 20
1673.082536337175
 30
0.0
 11
2445.430642745817
 21
1604.660414894367
 31
0.0
 12
4218.21211401001
 22
1636.380988991829
 32
0.0
 13
4218.21211401001
 23
1636.380988991829
 33
0.0
210
0.0
220
0.0
230
1.0
  0
SOLID
  5
223
330
20F
100
AcDbEntity
  8
HATCH
  6
CONTINUOUS
 62
     2
100
AcDbTrace
 10
2445.430642745817
 20
1679.660414894367
 30
0.0
 11
2445.430642745817
 21
1604.660414894367
 31
0.0
 12
4188.164972391613
 22
1673.082536337175
 32
0.0
 13
4188.164972391613
 23
1673.082536337175
 33
0.0
210
0.0
220
0.0
230
1.0
  0
SOLID
  5
224
330
20F
100
AcDbEntity
  8
HATCH
  6
CONTINUOUS
 62
     2
100
AcDbTrace
 10
4178.591223377813
 20
1679.660414894367
 30
0.0
 11
2445.430642745817
 21
1679.660414894367
 31
0.0
 12
4188.164972391613
 22
1673.082536337175
 32
0.0
 13
4188.164972391613
 23
1673.082536337175
 33
0.0
  0
SOLID
  5
225
330
20F
100
AcDbEntity
  8
HATCH
  6
CONTINUOUS
 62
     2
100
AcDbTrace
 10
4298.337824992409
 20
1579.660414894367
 30
0.0
 11
4298.33782499241
 21
1604.660414894367
 31
0.0
 12
2445.430642745817
 22
1579.660414894368
 32
0.0
 13
2445.430642745817
 23
1579.660414894368
 33
0.0
  0
SOLID
  5
226
330
20F
100
AcDbEntity
  8
HATCH
  6
CONTINUOUS
 62
     2
100
AcDbTrace
 10
2445.430642745817
 20
1604.660414894367
 30
0.0
 11
2445.430642745817
 21
1579.660414894368
 31
0.0
 12
4298.33782499241
 22
1604.660414894367
 32
0.0
 13
4298.33782499241
 23
1604.660414894367
 33
0.0
  0
ENDBLK
  5
228
330
20F
100
AcDbEntity
  8
0
100
AcDbBlockEnd
  0
BLOCK
  5
240
330
229
100
AcDbEntity
  8
0
100
AcDbBlockBegin
  2
*U3
 70
     1
 10
0.0
 20
0.0
 30
0.0
  3
*U3
  1

  0
SOLID
  5
22A
330
229
100
AcDbEntity
  8
HATCH
  6
CONTINUOUS
 62
     3
100
AcDbTrace
 10
2445.430642745817
 20
2450.488104114429
 30
0.0
 11
2145.430642745818
 21
2148.111325490876
 31
0.0
 12
2445.430642745817
 22
1579.660414894368
 32
0.0
 13
2445.430642745817
 23
1579.660414894368
 33
0.0
210
0.0
220
0.0
230
1.0
  0
SOLID
  5
22B
330
229
100
AcDbEntity
  8
HATCH
  6
CONTINUOUS
 62
     3
100
AcDbTrace
 10
2145.430642745817
 20
1571.742273759517
 30
0.0
 11
2445.430642745817
 21
1579.660414894368
 31
0.0
 12
2145.430642745818
 22
2148.111325490876
 32
0.0
 13
2145.430642745818
 23
2148.111325490876
 33
0.0
  0
SOLID
  5
22C
330
229
100
AcDbEntity
  8
HATCH
  6
CONTINUOUS
 62
     3
100
AcDbTrace
 10
2445.430642745817
 20
1579.660414894368
 30
0.0
 11
2145.430642745817
 21
1571.742273759517
 31
0.0
 12
2445.430642745817
 22
1269.365495135964
 32
0.0
 13
2445.430642745817
 23
1269.365495135964
 33
0.0
210
0.0
220
0.0
230
1.0
  0
SOLID
  5
22D
330
229
100
AcDbEntity
  8
HATCH
  6
CONTINUOUS
 62
     3
100
AcDbTrace
 10
1273.592036929219
 20
2450.488104114429
 30
0.0
 11
1573.59203692922
 21
2148.111325490874
 31
0.0
 12
1573.59203692922
 22
2150.488104114429
 32
0.0
 13
1573.59203692922
 23
2150.488104114429
 33
0.0
210
0.0
220
0.0
230
1.0
  0
SOLID
  5
22E
330
229
100
AcDbEntity
  8
HATCH
  6
CONTINUOUS
 62
     3
100
AcDbTrace
 10
1573.59203692922
 20
2150.488104114429
 30
0.0
 11
2445.430642745817
 21
2450.488104114429
 31
0.0
 12
1273.592036929219
 22
2450.488104114429
 32
0.0
 13
1273.592036929219
 23
2450.488104114429
 33
0.0
210
0.0
220
0.0
230
1.0
  0
SOLID
  5
22F
330
229
100
AcDbEntity
  8
HATCH
  6
CONTINUOUS
 62
     3
100
AcDbTrace
 10
2445.430642745817
 20
2450.488104114429
 30
0.0
 11
1573.59203692922
 21
2150.488104114429
 31
0.0
 12
2145.430642745818
 22
2150.488104114429
 32
0.0
 13
2145.430642745818
 23
2150.488104114429
 33
0.0
210
0.0
220
0.0
230
1.0
  0
SOLID
  5
230
330
229
100
AcDbEntity
  8
HATCH
  6
CONTINUOUS
 62
     3
100
AcDbTrace
 10
2445.430642745817
 20
2450.488104114429
 30
0.0
 11
2145.430642745818
 21
2150.488104114429
 31
0.0
 12
2145.430642745818
 22
2148.111325490876
 32
0.0
 13
2145.430642745818
 23
2148.111325490876
 33
0.0
210
0.0
220
0.0
230
1.0
  0
SOLID
  5
231
330
229
100
AcDbEntity
  8
HATCH
  6
CONTINUOUS
 62
     3
100
AcDbTrace
 10
1573.59203692922
 20
2150.488104114429
 30
0.0
 11
1573.59203692922
 21
2148.111325490874
 31
0.0
 12
2145.430642745818
 22
2150.488104114429
 32
0.0
 13
2145.430642745818
 23
2150.488104114429
 33
0.0
  0
SOLID
  5
232
330
229
100
AcDbEntity
  8
HATCH
  6
CONTINUOUS
 62
     3
100
AcDbTrace
 10
1859.511339837518
 20
1859.926799625196
 30
0.0
 11
2145.430642745818
 21
2150.488104114429
 31
0.0
 12
1573.59203692922
 22
2148.111325490874
 32
0.0
 13
1573.59203692922
 23
2148.111325490874
 33
0.0
210
0.0
220
0.0
230
1.0
  0
SOLID
  5
233
330
229
100
AcDbEntity
  8
HATCH
  6
CONTINUOUS
 62
     3
100
AcDbTrace
 10
2145.430642745818
 20
2150.488104114429
 30
0.0
 11
1859.511339837518
 21
1859.926799625196
 31
0.0
 12
2145.430642745818
 22
2148.111325490876
 32
0.0
 13
2145.430642745818
 23
2148.111325490876
 33
0.0
210
0.0
220
0.0
230
1.0
  0
SOLID
  5
234
330
229
100
AcDbEntity
  8
HATCH
  6
CONTINUOUS
 62
     3
100
AcDbTrace
 10
1859.511339837517
 20
1859.926799625196
 30
0.0
 11
2145.430642745818
 21
1571.742273759516
 31
0.0
 12
2145.430642745818
 22
2148.111325490876
 32
0.0
 13
2145.430642745818
 23
2148.111325490876
 33
0.0
210
0.0
220
0.0
230
1.0
  0
SOLID
  5
235
330
229
100
AcDbEntity
  8
HATCH
  6
CONTINUOUS
 62
     3
100
AcDbTrace
 10
2145.430642745818
 20
1579.660414894368
 30
0.0
 11
2145.430642745818
 21
2148.111325490876
 31
0.0
 12
2145.430642745818
 22
1571.742273759516
 32
0.0
 13
2145.430642745818
 23
1571.742273759516
 33
0.0
210
0.0
220
0.0
230
1.0
  0
SOLID
  5
236
330
229
100
AcDbEntity
  8
HATCH
  6
CONTINUOUS
 62
     3
100
AcDbTrace
 10
2145.430642745818
 20
1569.365495135963
 30
0.0
 11
2145.430642745818
 21
1571.742273759517
 31
0.0
 12
1573.592036929219
 22
1569.365495135964
 32
0.0
 13
1573.592036929219
 23
1569.365495135964
 33
0.0
210
0.0
220
0.0
230
1.0
  0
SOLID
  5
237
330
229
100
AcDbEntity
  8
HATCH
  6
CONTINUOUS
 62
     3
100
AcDbTrace
 10
1859.511339837517
 20
1859.926799625196
 30
0.0
 11
1573.592036929219
 21
1569.365495135964
 31
0.0
 12
2145.430642745818
 22
1571.742273759517
 32
0.0
 13
2145.430642745818
 23
1571.742273759517
 33
0.0
210
0.0
220
0.0
230
1.0
  0
SOLID
  5
238
330
229
100
AcDbEntity
  8
HATCH
  6
CONTINUOUS
 62
     3
100
AcDbTrace
 10
1573.592036929219
 20
1569.365495135964
 30
0.0
 11
1859.511339837517
 21
1859.926799625196
 31
0.0
 12
1573.592036929219
 22
1571.742273759518
 32
0.0
 13
1573.592036929219
 23
1571.742273759518
 33
0.0
210
0.0
220
0.0
230
1.0
  0
SOLID
  5
239
330
229
100
AcDbEntity
  8
HATCH
  6
CONTINUOUS
 62
     3
100
AcDbTrace
 10
2145.430642745818
 20
1569.365495135964
 30
0.0
 11
1273.592036929219
 21
1269.365495135964
 31
0.0
 12
2445.430642745817
 22
1269.365495135964
 32
0.0
 13
2445.430642745817
 23
1269.365495135964
 33
0.0
210
0.0
220
0.0
230
1.0
  0
SOLID
  5
23A
330
229
100
AcDbEntity
  8
HATCH
  6
CONTINUOUS
 62
     3
100
AcDbTrace
 10
1273.592036929219
 20
1269.365495135964
 30
0.0
 11
2145.430642745818
 21
1569.365495135964
 31
0.0
 12
1573.592036929219
 22
1569.365495135964
 32
0.0
 13
1573.592036929219
 23
1569.365495135964
 33
0.0
210
0.0
220
0.0
230
1.0
  0
SOLID
  5
23B
330
229
100
AcDbEntity
  8
HATCH
  6
CONTINUOUS
 62
     3
100
AcDbTrace
 10
2145.430642745817
 20
1571.742273759517
 30
0.0
 11
2145.430642745818
 21
1569.365495135964
 31
0.0
 12
2445.430642745817
 22
1269.365495135964
 32
0.0
 13
2445.430642745817
 23
1269.365495135964
 33
0.0
210
0.0
220
0.0
230
1.0
  0
SOLID
  5
23C
330
229
100
AcDbEntity
  8
HATCH
  6
CONTINUOUS
 62
     3
100
AcDbTrace
 10
1573.592036929219
 20
1571.742273759518
 30
0.0
 11
1273.592036929219
 21
1269.365495135964
 31
0.0
 12
1573.592036929219
 22
1569.365495135964
 32
0.0
 13
1573.592036929219
 23
1569.365495135964
 33
0.0
210
0.0
220
0.0
230
1.0
  0
SOLID
  5
23D
330
229
100
AcDbEntity
  8
HATCH
  6
CONTINUOUS
 62
     3
100
AcDbTrace
 10
1573.59203692922
 20
2148.111325490874
 30
0.0
 11
1273.592036929219
 21
2450.488104114429
 31
0.0
 12
1573.592036929219
 22
1571.742273759518
 32
0.0
 13
1573.592036929219
 23
1571.742273759518
 33
0.0
  0
SOLID
  5
23E
330
229
100
AcDbEntity
  8
HATCH
  6
CONTINUOUS
 62
     3
100
AcDbTrace
 10
1273.592036929219
 20
1269.365495135964
 30
0.0
 11
1573.592036929219
 21
1571.742273759518
 31
0.0
 12
1273.592036929219
 22
2450.488104114429
 32
0.0
 13
1273.592036929219
 23
2450.488104114429
 33
0.0
210
0.0
220
0.0
230
1.0
  0
SOLID
  5
23F
330
229
100
AcDbEntity
  8
HATCH
  6
CONTINUOUS
 62
     3
100
AcDbTrace
 10
1573.592036929219
 20
1571.742273759518
 30
0.0
 11
1859.511339837517
 21
1859.926799625196
 31
0.0
 12
1573.59203692922
 22
2148.111325490874
 32
0.0
 13
1573.59203692922
 23
2148.111325490874
 33
0.0
210
0.0
220
0.0
230
1.0
  0
ENDBLK
  5
241
330
229
100
AcDbEntity
  8
0
100
AcDbBlockEnd
  0
ENDSEC
  0
SECTION
  2
ENTITIES
  0
MTEXT
  5
13E
330
1F
100
AcDbEntity
  8
TEKST
100
AcDbMText
 10
1551.482562530367
 20
3198.043561835135
 30
0.0
 40
100.0
 41
1731.0578
 71
     1
 72
     1
  1
{\FIMPACT.TTF;Hoogte: 315 cm\PMax. valhoogte: 90 cm}
1001
ACAD
1000
MTEXTBEGIN
1070
    73
1070
     1
1070
    44
1040
1.0
1070
    74
1070
     0
1000
MTEXTEND
1000
MTEXTBEGIN
1070
    73
1070
     1
1070
    44
1040
1.0
1070
    74
1070
     0
1000
MTEXTEND
  0
INSERT
  5
203
330
1F
100
AcDbEntity
  8
HATCH
100
AcDbBlockReference
  2
ADKC0
 10
0.0
 20
0.0
 30
0.0
  0
ENDSEC
  0
SECTION
  2
OBJECTS
  0
DICTIONARY
  5
C
330
0
100
AcDbDictionary
  3
ACAD_GROUP
350
D
  3
ACAD_LAYOUT
350
1A
  3
ACAD_MLINESTYLE
350
17
  3
ACAD_PLOTSETTINGS
350
19
1001
ACAD
1000
TREAT_AS_HARD
1070
     0
1000
TREAT_AS_HARD
1070
     0
  0
DICTIONARY
  5
D5
330
1F
100
AcDbDictionary
  3
ACAD_LAYOUTSELFREF
350
205
  3
ACAD_SORTENTS
350
1AB
1001
ACAD
1000
TREAT_AS_HARD
1070
     1
1000
TREAT_AS_HARD
1070
     0
  0
DICTIONARY
  5
D7
330
50
100
AcDbDictionary
  3
ACAD_LAYOUTSELFREF
350
206
1001
ACAD
1000
TREAT_AS_HARD
1070
     1
1000
TREAT_AS_HARD
1070
     0
  0
DICTIONARY
  5
D
102
{ACAD_REACTORS
330
C
102
}
330
C
100
AcDbDictionary
1001
ACAD
1000
TREAT_AS_HARD
1070
     0
1000
TREAT_AS_HARD
1070
     0
  0
DICTIONARY
  5
1A
102
{ACAD_REACTORS
330
C
102
}
330
C
100
AcDbDictionary
1001
ACAD
1000
TREAT_AS_HARD
1070
     0
1000
TREAT_AS_HARD
1070
     0
  0
DICTIONARY
  5
17
102
{ACAD_REACTORS
330
C
102
}
330
C
100
AcDbDictionary
  3
STANDARD
350
18
1001
ACAD
1000
TREAT_AS_HARD
1070
     0
1000
TREAT_AS_HARD
1070
     0
  0
DICTIONARY
  5
19
102
{ACAD_REACTORS
330
C
102
}
330
C
100
AcDbDictionary
1001
ACAD
1000
TREAT_AS_HARD
1070
     0
1000
TREAT_AS_HARD
1070
     0
  0
XRECORD
  5
205
102
{ACAD_REACTORS
330
D5
102
}
330
D5
100
AcDbXrecord
340
1F
  0
SORTENTSTABLE
  5
1AB
102
{ACAD_REACTORS
330
D5
102
}
330
D5
100
AcDbSortentsTable
330
1F
331
172
  5
175
331
161
  5
15B
331
170
  5
173
331
15F
  5
165
331
17F
  5
1D8
331
15D
  5
163
331
16E
  5
171
331
1D8
  5
13E
331
17D
  5
1AA
331
15B
  5
161
331
16C
  5
16F
331
17B
  5
17E
331
159
  5
15F
331
16A
  5
16D
331
179
  5
17C
331
168
  5
16B
331
166
  5
169
331
177
  5
17A
331
1AA
  5
15A
331
175
  5
178
331
164
  5
167
331
1CE
  5
159
331
173
  5
176
331
162
  5
15C
331
171
  5
174
331
160
  5
166
331
16F
  5
172
331
15E
  5
164
331
17E
  5
1CE
331
15C
  5
162
331
16D
  5
170
331
17C
  5
17F
331
15A
  5
160
331
16B
  5
16E
331
17A
  5
17D
331
169
  5
16C
331
178
  5
17B
331
167
  5
16A
331
13E
  5
15E
331
176
  5
179
331
165
  5
168
331
174
  5
177
331
163
  5
15D
  0
XRECORD
  5
206
102
{ACAD_REACTORS
330
D7
102
}
330
D7
100
AcDbXrecord
340
50
  0
MLINESTYLE
  5
18
102
{ACAD_REACTORS
330
17
102
}
330
17
100
AcDbMlineStyle
  2
STANDARD
 70
     0
  3

 62
   256
 51
90.0
 52
90.0
 71
     2
 49
0.5
 62
   256
  6
BYLAYER
 49
-0.5
 62
   256
  6
BYLAYER
  0
ENDSEC
  0
EOF
