  0
SECTION
  2
HEADER
  9
$ACADVER
  1
AC1012
  9
$DWGCODEPAGE
  3
ANSI_1252
  9
$INSBASE
 10
0.0
 20
0.0
 30
0.0
  9
$EXTMIN
 10
-311.9237576037558
 20
-312.4522425240975
 30
-0.0015258207003583
  9
$EXTMAX
 10
8581.422162112856
 20
7012.702715823981
 30
0.0000000349246037
  9
$LIMMIN
 10
0.0
 20
0.0
  9
$LIMMAX
 10
420.0
 20
297.0
  9
$ORTHOMODE
 70
     1
  9
$REGENMODE
 70
     1
  9
$FILLMODE
 70
     1
  9
$QTEXTMODE
 70
     0
  9
$MIRRTEXT
 70
     1
  9
$DRAGMODE
 70
     2
  9
$LTSCALE
 40
1.0
  9
$OSMODE
 70
  3071
  9
$ATTMODE
 70
     1
  9
$TEXTSIZE
 40
2.5
  9
$TRACEWID
 40
1.0
  9
$TEXTSTYLE
  7
STANDARD
  9
$CLAYER
  8
HATCH
  9
$CELTYPE
  6
BYLAYER
  9
$CECOLOR
 62
   256
  9
$CELTSCALE
 40
1.0
  9
$DELOBJ
 70
     1
  9
$DISPSILH
 70
     0
  9
$DIMSCALE
 40
1.0
  9
$DIMASZ
 40
2.5
  9
$DIMEXO
 40
0.625
  9
$DIMDLI
 40
3.75
  9
$DIMRND
 40
0.0
  9
$DIMDLE
 40
0.0
  9
$DIMEXE
 40
1.25
  9
$DIMTP
 40
0.0
  9
$DIMTM
 40
0.0
  9
$DIMTXT
 40
2.5
  9
$DIMCEN
 40
2.5
  9
$DIMTSZ
 40
0.0
  9
$DIMTOL
 70
     0
  9
$DIMLIM
 70
     0
  9
$DIMTIH
 70
     0
  9
$DIMTOH
 70
     0
  9
$DIMSE1
 70
     0
  9
$DIMSE2
 70
     0
  9
$DIMTAD
 70
     1
  9
$DIMZIN
 70
     8
  9
$DIMBLK
  1

  9
$DIMASO
 70
     1
  9
$DIMSHO
 70
     1
  9
$DIMPOST
  1

  9
$DIMAPOST
  1

  9
$DIMALT
 70
     0
  9
$DIMALTD
 70
     3
  9
$DIMALTF
 40
0.03937007874016
  9
$DIMLFAC
 40
1.0
  9
$DIMTOFL
 70
     1
  9
$DIMTVP
 40
0.0
  9
$DIMTIX
 70
     0
  9
$DIMSOXD
 70
     0
  9
$DIMSAH
 70
     0
  9
$DIMBLK1
  1

  9
$DIMBLK2
  1

  9
$DIMSTYLE
  2
ISO-25
  9
$DIMCLRD
 70
     0
  9
$DIMCLRE
 70
     0
  9
$DIMCLRT
 70
     0
  9
$DIMTFAC
 40
1.0
  9
$DIMGAP
 40
0.625
  9
$DIMJUST
 70
     0
  9
$DIMSD1
 70
     0
  9
$DIMSD2
 70
     0
  9
$DIMTOLJ
 70
     0
  9
$DIMTZIN
 70
     8
  9
$DIMALTZ
 70
     0
  9
$DIMALTTZ
 70
     0
  9
$DIMFIT
 70
     3
  9
$DIMUPT
 70
     0
  9
$DIMUNIT
 70
     2
  9
$DIMDEC
 70
     2
  9
$DIMTDEC
 70
     2
  9
$DIMALTU
 70
     2
  9
$DIMALTTD
 70
     3
  9
$DIMTXSTY
  7
STANDARD
  9
$DIMAUNIT
 70
     0
  9
$LUNITS
 70
     2
  9
$LUPREC
 70
     4
  9
$SKETCHINC
 40
1.0
  9
$FILLETRAD
 40
100.0
  9
$AUNITS
 70
     0
  9
$AUPREC
 70
     0
  9
$MENU
  1
.
  9
$ELEVATION
 40
0.0
  9
$PELEVATION
 40
0.0
  9
$THICKNESS
 40
0.0
  9
$LIMCHECK
 70
     0
  9
$BLIPMODE
 70
     0
  9
$CHAMFERA
 40
10.0
  9
$CHAMFERB
 40
10.0
  9
$CHAMFERC
 40
20.0
  9
$CHAMFERD
 40
0.0
  9
$SKPOLY
 70
     0
  9
$TDCREATE
 40
2452626.553715046
  9
$TDUPDATE
 40
2452772.675452546
  9
$TDINDWG
 40
0.0171202546
  9
$TDUSRTIMER
 40
0.0171189815
  9
$USRTIMER
 70
     1
  9
$ANGBASE
 50
0.0
  9
$ANGDIR
 70
     0
  9
$PDMODE
 70
     0
  9
$PDSIZE
 40
0.0
  9
$PLINEWID
 40
0.0
  9
$COORDS
 70
     2
  9
$SPLFRAME
 70
     0
  9
$SPLINETYPE
 70
     6
  9
$SPLINESEGS
 70
     8
  9
$ATTDIA
 70
     0
  9
$ATTREQ
 70
     1
  9
$HANDLING
 70
-16383
  9
$HANDSEED
  5
7C5
  9
$SURFTAB1
 70
     6
  9
$SURFTAB2
 70
     6
  9
$SURFTYPE
 70
     6
  9
$SURFU
 70
     6
  9
$SURFV
 70
     6
  9
$UCSNAME
  2

  9
$UCSORG
 10
0.0
 20
0.0
 30
0.0
  9
$UCSXDIR
 10
1.0
 20
0.0
 30
0.0
  9
$UCSYDIR
 10
0.0
 20
1.0
 30
0.0
  9
$PUCSNAME
  2

  9
$PUCSORG
 10
0.0
 20
0.0
 30
0.0
  9
$PUCSXDIR
 10
1.0
 20
0.0
 30
0.0
  9
$PUCSYDIR
 10
0.0
 20
1.0
 30
0.0
  9
$USERI1
 70
     0
  9
$USERI2
 70
     0
  9
$USERI3
 70
     0
  9
$USERI4
 70
     0
  9
$USERI5
 70
     0
  9
$USERR1
 40
0.0
  9
$USERR2
 40
0.0
  9
$USERR3
 40
0.0
  9
$USERR4
 40
0.0
  9
$USERR5
 40
0.0
  9
$WORLDVIEW
 70
     1
  9
$SHADEDGE
 70
     3
  9
$SHADEDIF
 70
    70
  9
$TILEMODE
 70
     1
  9
$MAXACTVP
 70
    64
  9
$PINSBASE
 10
0.0
 20
0.0
 30
0.0
  9
$PLIMCHECK
 70
     0
  9
$PEXTMIN
 10
0.0
 20
0.0
 30
0.0
  9
$PEXTMAX
 10
0.0
 20
0.0
 30
0.0
  9
$PLIMMIN
 10
0.0
 20
0.0
  9
$PLIMMAX
 10
12.0
 20
9.0
  9
$UNITMODE
 70
     0
  9
$VISRETAIN
 70
     1
  9
$PLINEGEN
 70
     0
  9
$PSLTSCALE
 70
     1
  9
$TREEDEPTH
 70
  3020
  9
$PICKSTYLE
 70
     1
  9
$CMLSTYLE
  2
STANDARD
  9
$CMLJUST
 70
     0
  9
$CMLSCALE
 40
20.0
  9
$SAVEIMAGES
 70
     1
  0
ENDSEC
  0
SECTION
  2
CLASSES
  0
CLASS
  1
ACDBDICTIONARYWDFLT
  2
AcDbDictionaryWithDefault
  3
AutoCAD 2000
 90
    32768
280
     0
281
     0
  0
CLASS
  1
ACDBPLACEHOLDER
  2
AcDbPlaceHolder
  3
AutoCAD 2000
 90
    32768
280
     0
281
     0
  0
CLASS
  1
LAYOUT
  2
AcDbLayout
  3
AutoCAD 2000
 90
    32768
280
     0
281
     0
  0
CLASS
  1
LONG_TRANSACTION
  2
AcDbLongTransaction
  3
AutoCAD 2000
 90
    32768
280
     0
281
     0
  0
CLASS
  1
LWPOLYLINE
  2
AcDbPolyline
  3
AutoCAD 2000
 90
    32768
280
     0
281
     1
  0
CLASS
  1
HATCH
  2
AcDbHatch
  3
AutoCAD 2000
 90
    32768
280
     0
281
     1
  0
CLASS
  1
XRECORD
  2
AcDbXrecord
  3
AutoCAD 2000
 90
    32768
280
     0
281
     0
  0
CLASS
  1
LONG_TRANSACTION
  2
AcDbLongTransaction
  3
AutoCAD 2000
 90
    32768
280
     0
281
     0
  0
CLASS
  1
LWPOLYLINE
  2
AcDbPolyline
  3
AutoCAD 2000
 90
    32768
280
     0
281
     1
  0
CLASS
  1
HATCH
  2
AcDbHatch
  3
AutoCAD 2000
 90
    32768
280
     0
281
     1
  0
CLASS
  1
XRECORD
  2
AcDbXrecord
  3
AutoCAD 2000
 90
    32768
280
     0
281
     0
  0
CLASS
  1
LONG_TRANSACTION
  2
AcDbLongTransaction
  3
AutoCAD 2000
 90
    32768
280
     0
281
     0
  0
CLASS
  1
LWPOLYLINE
  2
AcDbPolyline
  3
AutoCAD 2000
 90
    32768
280
     0
281
     1
  0
CLASS
  1
HATCH
  2
AcDbHatch
  3
AutoCAD 2000
 90
    32768
280
     0
281
     1
  0
CLASS
  1
XRECORD
  2
AcDbXrecord
  3
AutoCAD 2000
 90
    32768
280
     0
281
     0
  0
CLASS
  1
DICTIONARYVAR
  2
AcDbDictionaryVar
  3
AutoCAD 2000
 90
    32768
280
     0
281
     0
  0
CLASS
  1
LONG_TRANSACTION
  2
AcDbLongTransaction
  3
AutoCAD 2000
 90
    32768
280
     0
281
     0
  0
CLASS
  1
LWPOLYLINE
  2
AcDbPolyline
  3
AutoCAD 2000
 90
    32768
280
     0
281
     1
  0
CLASS
  1
HATCH
  2
AcDbHatch
  3
AutoCAD 2000
 90
    32768
280
     0
281
     1
  0
CLASS
  1
XRECORD
  2
AcDbXrecord
  3
AutoCAD 2000
 90
    32768
280
     0
281
     0
  0
CLASS
  1
SORTENTSTABLE
  2
AcDbSortentsTable
  3
AutoCAD 2000
 90
    32768
280
     0
281
     0
  0
CLASS
  1
LONG_TRANSACTION
  2
AcDbLongTransaction
  3
AutoCAD 2000
 90
    32768
280
     0
281
     0
  0
CLASS
  1
LWPOLYLINE
  2
AcDbPolyline
  3
AutoCAD 2000
 90
    32768
280
     0
281
     1
  0
CLASS
  1
HATCH
  2
AcDbHatch
  3
AutoCAD 2000
 90
    32768
280
     0
281
     1
  0
CLASS
  1
XRECORD
  2
AcDbXrecord
  3
AutoCAD 2000
 90
    32768
280
     0
281
     0
  0
ENDSEC
  0
SECTION
  2
TABLES
  0
TABLE
  2
VPORT
  5
8
330
0
100
AcDbSymbolTable
 70
     2
  0
VPORT
  5
44F
330
8
100
AcDbSymbolTableRecord
100
AcDbViewportTableRecord
  2
*ACTIVE
 70
     0
 10
0.0
 20
0.0
 11
1.0
 21
1.0
 12
4134.749202254549
 22
3350.125236649942
 13
0.0
 23
0.0
 14
10.0
 24
10.0
 15
10.0
 25
10.0
 16
0.0
 26
0.0
 36
1.0
 17
0.0
 27
0.0
 37
0.0
 40
7413.944715418965
 41
1.558704453441295
 42
50.0
 43
0.0
 44
0.0
 50
0.0
 51
0.0
 71
     0
 72
   100
 73
     1
 74
     3
 75
     0
 76
     0
 77
     0
 78
     0
  0
ENDTAB
  0
TABLE
  2
LTYPE
  5
5
330
0
100
AcDbSymbolTable
 70
     1
  0
LTYPE
  5
14
330
5
100
AcDbSymbolTableRecord
100
AcDbLinetypeTableRecord
  2
BYBLOCK
 70
     0
  3

 72
    65
 73
     0
 40
0.0
  0
LTYPE
  5
15
330
5
100
AcDbSymbolTableRecord
100
AcDbLinetypeTableRecord
  2
BYLAYER
 70
     0
  3

 72
    65
 73
     0
 40
0.0
  0
LTYPE
  5
16
330
5
100
AcDbSymbolTableRecord
100
AcDbLinetypeTableRecord
  2
CONTINUOUS
 70
     0
  3
Solid line
 72
    65
 73
     0
 40
0.0
  0
ENDTAB
  0
TABLE
  2
LAYER
  5
2
330
0
100
AcDbSymbolTable
 70
     5
  0
LAYER
  5
10
330
2
100
AcDbSymbolTableRecord
100
AcDbLayerTableRecord
  2
0
 70
     0
 62
     7
  6
CONTINUOUS
  0
LAYER
  5
5D
330
2
100
AcDbSymbolTableRecord
100
AcDbLayerTableRecord
  2
SAFETY
 70
     0
 62
     7
  6
CONTINUOUS
  0
LAYER
  5
5E
330
2
100
AcDbSymbolTableRecord
100
AcDbLayerTableRecord
  2
OBJECT
 70
     0
 62
     7
  6
CONTINUOUS
  0
LAYER
  5
1F6
330
2
100
AcDbSymbolTableRecord
100
AcDbLayerTableRecord
  2
TEKST
 70
     0
 62
     7
  6
CONTINUOUS
  0
LAYER
  5
2C7
330
2
100
AcDbSymbolTableRecord
100
AcDbLayerTableRecord
  2
HATCH
 70
     0
 62
     7
  6
CONTINUOUS
  0
ENDTAB
  0
TABLE
  2
STYLE
  5
3
330
0
100
AcDbSymbolTable
 70
     1
  0
STYLE
  5
11
330
3
100
AcDbSymbolTableRecord
100
AcDbTextStyleTableRecord
  2
STANDARD
 70
     0
 40
0.0
 41
1.0
 50
0.0
 71
     0
 42
2.5
  3
txt
  4

  0
ENDTAB
  0
TABLE
  2
VIEW
  5
6
330
0
100
AcDbSymbolTable
 70
     0
  0
ENDTAB
  0
TABLE
  2
UCS
  5
7
330
0
100
AcDbSymbolTable
 70
     0
  0
ENDTAB
  0
TABLE
  2
APPID
  5
9
330
0
100
AcDbSymbolTable
 70
     2
  0
APPID
  5
12
330
9
100
AcDbSymbolTableRecord
100
AcDbRegAppTableRecord
  2
ACAD
 70
     0
  0
APPID
  5
1EF
330
9
100
AcDbSymbolTableRecord
100
AcDbRegAppTableRecord
  2
CONTENTBLOCKICON
 70
     0
  0
ENDTAB
  0
TABLE
  2
DIMSTYLE
  5
A
330
0
100
AcDbSymbolTable
 70
     2
  0
DIMSTYLE
105
27
330
A
100
AcDbSymbolTableRecord
100
AcDbDimStyleTableRecord
  2
ISO-25
 70
     0
  3

  4

  5

  6

  7

 40
1.0
 41
2.5
 42
0.625
 43
3.75
 44
1.25
 45
0.0
 46
0.0
 47
0.0
 48
0.0
140
2.5
141
2.5
142
0.0
143
0.03937007874016
144
1.0
145
0.0
146
1.0
147
0.625
 71
     0
 72
     0
 73
     0
 74
     0
 75
     0
 76
     0
 77
     1
 78
     8
170
     0
171
     3
172
     1
173
     0
174
     0
175
     0
176
     0
177
     0
178
     0
270
     2
271
     2
272
     2
273
     2
274
     3
340
11
275
     0
280
     0
281
     0
282
     0
283
     0
284
     8
285
     0
286
     0
287
     3
288
     0
  0
DIMSTYLE
105
5F
330
A
100
AcDbSymbolTableRecord
100
AcDbDimStyleTableRecord
  2
SAF-W
 70
     0
  3

  4

  5

  6

  7

 40
50.0
 41
2.5
 42
2.0
 43
0.5
 44
1.0
 45
0.0
 46
0.0
 47
0.0
 48
0.0
140
2.5
141
0.09
142
0.0
143
25.4
144
1.0
145
0.0
146
1.0
147
0.5
 71
     0
 72
     0
 73
     0
 74
     0
 75
     0
 76
     0
 77
     1
 78
     8
170
     0
171
     2
172
     1
173
     0
174
     0
175
     0
176
   256
177
   256
178
   256
270
     2
271
     0
272
     0
273
     2
274
     2
340
11
275
     0
280
     0
281
     0
282
     0
283
     1
284
     0
285
     0
286
     0
287
     3
288
     0
  0
ENDTAB
  0
TABLE
  2
BLOCK_RECORD
  5
1
330
0
100
AcDbSymbolTable
 70
     6
  0
BLOCK_RECORD
  5
1F
102
{ACAD_XDICTIONARY
360
154
102
}
330
1
100
AcDbSymbolTableRecord
100
AcDbBlockTableRecord
  2
*MODEL_SPACE
  0
BLOCK_RECORD
  5
50
102
{ACAD_XDICTIONARY
360
156
102
}
330
1
100
AcDbSymbolTableRecord
100
AcDbBlockTableRecord
  2
*PAPER_SPACE
  0
BLOCK_RECORD
  5
160
330
1
100
AcDbSymbolTableRecord
100
AcDbBlockTableRecord
  2
ADKK
1001
ACAD
1000
DesignCenter Data
1002
{
1070
     1
1070
     4
1002
}
1001
CONTENTBLOCKICON
1071
        0
1004
28000000200000002000000001000800000000000004000000000000000000000000000000000000000000004000000080000000FF000000002000004020000080200000FF200000004000004040000080400000FF400000006000004060000080600000FF600000008000004080000080800000FF80000000A0000040A000
1004
0080A00000FFA0000000C0000040C0000080C00000FFC0000000FF000040FF000080FF0000FFFF0000000020004000200080002000FF002000002020004020200080202000FF202000004020004040200080402000FF402000006020004060200080602000FF602000008020004080200080802000FF80200000A0200040A0
1004
200080A02000FFA0200000C0200040C0200080C02000FFC0200000FF200040FF200080FF2000FFFF2000000040004000400080004000FF004000002040004020400080204000FF204000004040004040400080404000FF404000006040004060400080604000FF604000008040004080400080804000FF80400000A0400040
1004
A0400080A04000FFA0400000C0400040C0400080C04000FFC0400000FF400040FF400080FF4000FFFF4000000060004000600080006000FF006000002060004020600080206000FF206000004060004040600080406000FF406000006060004060600080606000FF606000008060004080600080806000FF80600000A06000
1004
40A0600080A06000FFA0600000C0600040C0600080C06000FFC0600000FF600040FF600080FF6000FFFF6000000080004000800080008000FF008000002080004020800080208000FF208000004080004040800080408000FF408000006080004060800080608000FF608000008080004080800080808000FF80800000A080
1004
0040A0800080A08000FFA0800000C0800040C0800080C08000FFC0800000FF800040FF800080FF8000FFFF80000000A0004000A0008000A000FF00A0000020A0004020A0008020A000FF20A0000040A0004040A0008040A000FF40A0000060A0004060A0008060A000FF60A0000080A0004080A0008080A000FF80A00000A0
1004
A00040A0A00080A0A000FFA0A00000C0A00040C0A00080C0A000FFC0A00000FFA00040FFA00080FFA000FFFFA0000000C0004000C0008000C000FF00C0000020C0004020C0008020C000FF20C0000040C0004040C0008040C000FF40C0000060C0004060C0008060C000FF60C0000080C0004080C0008080C000FF80C00000
1004
A0C00040A0C00080A0C000FFA0C00000C0C00040C0C00080C0C000FFC0C00000FFC00040FFC00080FFC000FFFFC0000000FF004000FF008000FF00FF00FF000020FF004020FF008020FF00FF20FF000040FF004040FF008040FF00FF40FF000060FF004060FF008060FF00FF60FF000080FF004080FF008080FF00FF80FF00
1004
00A0FF0040A0FF0080A0FF00FFA0FF0000C0FF0040C0FF0080C0FF00FFC0FF0000FFFF0040FFFF0080FFFF00FFFFFF0000000000000000000000000000000000000000000000000000000000000000000000000000000000000000000000000000000000000000000000000000000000000000000000000000000000000000
1004
00000000000000000000000000000000000000000000000000000000000000000000000000000000000000000000000000000000000000FFFFFFFF0000000000000000000000000000000000000000000000000000FFFF00000000FFFFFFFFFFFF00000000000000000000000000000000000000FF00000000000000000000
1004
0000FF0000000000000000000000000000000000FF0000000000000000000000000000FF00000000000000000000000000000000FF000000000000000000000000000000FF0000000000000000000000000000FF000000001C1C1C1C1C1C1C1C00000000FF0000000000000000000000000000FF000000001C00001C000000
1004
1C0000000000FF00000000000000000000000000FF000000001C00001C0000001C000000000000FF000000000000000000000000FF000000001C00001C0000001C00000000000000FF0000000000000000000000FF000000001C00001C0000001C00000000000000FF0000000000000000000000FF000000001C00001C0000
1004
001C0000000000000000FF00000000000000000000FF000000001C1C1C1C1C1C1C1C000000000000000000FFFFFFFFFFFFFFFF0000FF000000001C1C1C1C1C1C1C1C00000000000000000000000000000000FF0000FF000000001C1C1C00001C001C00000000000000000000000000000000FF0000FF000000001C1C001C1C
1004
1C00FCFCFCFCFCFCFCFCFCFCFC000000000000FF0000FF000000001C1C001C1C1C00FCFCFCFC0000FCFCFCFCFC000000000000FF0000FF000000001C1C1C1C1C1C00FC00FCFC000000FC00FCFC000000000000FF0000FF000000001C1C000000001CFCFCFCFCFCFCFCFCFCFCFC000000000000FF0000FF000000001C1C1C1C
1004
1C1C1C1C0000000000000000FCFC000000000000FF000000FF0000000000000000FFFFFFFFFFFF00000000000000000000000000FF000000FF0000000000000000FFFFFFFFFFFF00000000000000000000000000FF00000000FF00000000000000FFFFFFFFFF000000FFFFFFFFFFFFFFFFFFFFFFFF0000000000FFFF000000
1004
00000000FFFFFFFFFFFF00000000000000000000000000000000000000FFFFFFFFFFFFFFFF000000000000000000000000000000000000000000000000000000000000000000000000000000000000000000000000000000000000000000000000000000000000000000000000000000000000000000000000000000000000
1004
0000000000000000000000000000000000000000000000000000000000000000000000000000000000000000000000000000000000000000
  0
BLOCK_RECORD
  5
453
330
1
100
AcDbSymbolTableRecord
100
AcDbBlockTableRecord
  2
*U1
  0
BLOCK_RECORD
  5
460
330
1
100
AcDbSymbolTableRecord
100
AcDbBlockTableRecord
  2
*U2
  0
BLOCK_RECORD
  5
688
330
1
100
AcDbSymbolTableRecord
100
AcDbBlockTableRecord
  2
*U3
  0
BLOCK_RECORD
  5
723
330
1
100
AcDbSymbolTableRecord
100
AcDbBlockTableRecord
  2
*U4
  0
BLOCK_RECORD
  5
789
330
1
100
AcDbSymbolTableRecord
100
AcDbBlockTableRecord
  2
*U5
  0
ENDTAB
  0
ENDSEC
  0
SECTION
  2
BLOCKS
  0
BLOCK
  5
20
330
1F
100
AcDbEntity
  8
0
100
AcDbBlockBegin
  2
*MODEL_SPACE
 70
     0
 10
0.0
 20
0.0
 30
0.0
  3
*MODEL_SPACE
  1

  0
ENDBLK
  5
21
330
1F
100
AcDbEntity
  8
0
100
AcDbBlockEnd
  0
BLOCK
  5
52
330
50
100
AcDbEntity
 67
     1
  8
0
100
AcDbBlockBegin
  2
*PAPER_SPACE
 70
     0
 10
0.0
 20
0.0
 30
0.0
  3
*PAPER_SPACE
  1

  0
ENDBLK
  5
53
330
50
100
AcDbEntity
 67
     1
  8
0
100
AcDbBlockEnd
  0
BLOCK
  5
161
330
160
100
AcDbEntity
  8
0
100
AcDbBlockBegin
  2
ADKK
 70
     0
 10
0.0
 20
0.0
 30
0.0
  3
ADKK
  1

  0
INSERT
  5
3CF
330
160
100
AcDbEntity
  8
HATCH
  6
CONTINUOUS
 62
     3
100
AcDbBlockReference
  2
*U1
 10
0.0
 20
0.0
 30
0.0
1001
ACAD
1002
{
1000
R14_HATCH_DATA
1000
3CF
1011
1.0
1021
0.0
1031
0.0
1011
0.0
1021
1.0
1031
0.0
1011
0.0
1021
0.0
1031
1.0
1040
0.0
1010
0.0
1020
0.0
1030
1.0
1000
SOLID
1070
     1
1070
     0
1071
        2
1071
        7
1070
     1
1070
     1
1071
        6
1040
3570.258550786572
1040
3053.4908800566
1040
0.0
1040
2451.394866266644
1040
3053.4908800566
1040
0.0
1040
2451.394866266644
1040
1309.9908800566
1040
0.0
1040
2451.394866266643
1040
1304.990880056601
1040
0.0
1040
3470.258550786573
1040
1304.9908800566
1040
0.4142135623730951
1040
3570.258550786572
1040
1404.9908800566
1040
0.0
1071
        0
1071
        7
1070
     1
1070
     1
1071
        6
1040
2451.394866266644
1040
3053.4908800566
1040
0.0
1040
1332.531181746717
1040
3053.4908800566
1040
0.0
1040
1332.531181746717
1040
1404.9908800566
1040
0.4142135623730951
1040
1432.531181746717
1040
1304.990880056601
1040
0.0
1040
2451.394866266644
1040
1304.990880056601
1040
0.0
1040
2451.394866266644
1040
1309.9908800566
1040
0.0
1071
        0
1070
     0
1070
     1
1040
4.163157483642854
1071
        2
1040
3081.701613928213
1040
2525.473536868449
1040
0.0
1040
2140.082501569529
1040
2421.394595832756
1040
0.0
1002
}
  0
LINE
  5
3D0
330
160
100
AcDbEntity
  8
OBJECT
100
AcDbLine
 10
2451.394866266644
 20
1309.9908800566
 30
0.0
 11
2451.394866266644
 21
3053.4908800566
 31
0.0
  0
LINE
  5
3D1
330
160
100
AcDbEntity
  8
OBJECT
100
AcDbLine
 10
2451.394866266644
 20
1309.9908800566
 30
0.0
 11
2451.394866266644
 21
1304.990880056601
 31
0.0
  0
INSERT
  5
3D2
330
160
100
AcDbEntity
  8
HATCH
  6
CONTINUOUS
 62
     2
100
AcDbBlockReference
  2
*U2
 10
0.0
 20
0.0
 30
0.0
1001
ACAD
1002
{
1000
R14_HATCH_DATA
1000
3D2
1011
1.0
1021
0.0
1031
0.0
1011
0.0
1021
1.0
1031
0.0
1011
0.0
1021
0.0
1031
1.0
1040
0.0
1010
0.0
1020
0.0
1030
1.0
1000
SOLID
1070
     1
1070
     1
1071
        4
1071
        5
1071
        5
1070
     3
1040
3793.907568158877
1040
4703.49088005659
1040
-0.0000000000282853
1040
460.0
1040
0.8660254037844051
1040
3.141592653589868
1040
5.817128316669887
1070
     1
1070
     3
1040
3793.907568158877
1040
4703.49088005659
1040
-0.0000000000282853
1040
460.0
1040
0.8660254037844051
1040
5.817128316669874
1040
6.283185307179754
1070
     1
1070
     1
1040
3793.907568158356
1040
5163.490880056617
1040
3651.394866266639
1040
5163.490880056611
1070
     1
1040
3651.394866266639
1040
5163.490880056611
1040
3651.39486626664
1040
4243.490880056612
1070
     1
1040
3651.39486626664
1040
4243.490880056612
1040
3793.907568159204
1040
4243.490880056618
1071
        5
1005
412
1005
417
1005
418
1005
3E0
1005
415
1071
        5
1071
        6
1070
     3
1040
3793.907568158877
1040
4703.49088005659
1040
-0.0000000000282853
1040
460.0
1040
0.8660254037844051
1040
0.4660569905096992
1040
3.141592653589718
1070
     0
1070
     1
1040
3793.907568158925
1040
4243.490880056589
1040
4158.907568158952
1040
4243.490880056611
1070
     3
1040
4158.907568158915
1040
4703.490880056611
1040
0.0000000000282853
1040
-460.0
1040
0.8660254037844051
1040
0.0000000000000135
1040
1.570796326794896
1070
     1
1070
     3
1040
4158.907568158915
1040
4703.490880056569
1040
0.0000000000282853
1040
460.0
1040
0.8660254037844051
1040
4.712388980384689
1040
6.283185307179572
1070
     1
1070
     1
1040
4158.90756815853
1040
5163.490880056611
1040
3824.92177325864
1040
5163.490880056593
1070
     3
1040
3793.907568158877
1040
4703.49088005659
1040
-0.0000000000282853
1040
460.0
1040
0.8660254037844051
1040
-0.0000000000001679
1040
0.4660569905097116
1070
     0
1071
        6
1005
433
1005
416
1005
417
1005
412
1005
414
1005
3DC
1071
        5
1071
        6
1070
     3
1040
4341.920270051185
1040
4703.490880056564
1040
-0.0000000000317848
1040
-460.0
1040
0.4999999999999508
1040
4.712388980384696
1040
6.28318530717959
1070
     0
1070
     1
1040
4368.818756257531
1040
4243.49088005661
1040
5381.150754593008
1040
4243.490880056651
1070
     3
1040
5381.150754592509
1040
4703.490880056583
1040
0.0000000001128305
1040
-460.0
1040
0.5000000000000373
1040
-0.0000000000001789
1040
1.570796326794769
1070
     1
1070
     3
1040
5381.150754592509
1040
4703.490880056583
1040
0.0000000001128305
1040
-460.0
1040
0.5000000000000373
1040
1.570796326794754
1040
3.141592653589781
1070
     1
1070
     1
1040
5381.150754591971
1040
5163.490880056652
1040
4368.818756257415
1040
5163.490880056611
1070
     3
1040
4341.920270051185
1040
4703.490880056564
1040
-0.0000000000317848
1040
-460.0
1040
0.4999999999999508
1040
3.141592653589813
1040
4.712388980384709
1070
     0
1071
        6
1005
422
1005
420
1005
421
1005
41C
1005
41D
1005
41B
1071
        5
1071
       10
1070
     3
1040
5381.150754592509
1040
4703.490880056583
1040
0.0000000001128305
1040
-460.0
1040
0.5000000000000373
1040
4.712388980384817
1040
6.283185307179764
1070
     0
1070
     1
1040
5405.335878571492
1040
4243.490880056587
1040
5631.15075459272
1040
4243.490880056635
1070
     4
1070
     3
1070
     0
1070
     0
1071
       16
1071
       12
1040
0.0
1040
0.0
1040
0.0
1040
0.0
1040
4.02002397827454
1040
4.02002397827454
1040
8.040485283686606
1040
8.040485283686606
1040
15.85777958932923
1040
15.85777958932923
1040
23.68581056918948
1040
23.68581056918948
1040
31.51918357615583
1040
31.51918357615583
1040
31.51918357615583
1040
31.51918357615583
1040
5631.150754592717
1040
4243.490880056571
1040
5631.150754592717
1040
4243.490880056571
1040
5631.150754592717
1040
4243.625722548055
1040
5631.150754592717
1040
4244.161002211863
1040
5631.150754592717
1040
4244.560102197834
1040
5631.150754592717
1040
4246.104326029476
1040
5631.150754592717
1040
4247.583169259269
1040
5631.150754592717
1040
4251.293987945935
1040
5631.150754592717
1040
4253.491406040474
1040
5631.150754592713
1040
4258.320869864333
1040
5631.150754592709
1040
4260.907202641003
1040
5631.150754592709
1040
4263.518326976661
1070
     1
1040
5631.150754592709
1040
4263.518326976661
1040
5933.479016930118
1040
4263.518326976659
1070
     3
1040
5933.479016929652
1040
4723.518326976593
1040
-0.0000000001135516
1040
460.0
1040
0.5000000000000369
1040
3.141592653589611
1040
4.668837285827257
1070
     1
1070
     3
1040
5933.479016929744
1040
4683.46343313648
1040
-0.0000000001139046
1040
459.9999999999998
1040
0.5000000000000387
1040
-1.527244632229107
1040
-0.0000000000000169
1070
     1
1070
     1
1040
5933.479016929631
1040
5143.463433136481
1040
5631.150754592313
1040
5143.463433136481
1070
     4
1070
     3
1070
     0
1070
     0
1071
       16
1071
       12
1040
0.0
1040
0.0
1040
0.0
1040
0.0
1040
4.043133316662689
1040
4.043133316662689
1040
8.085930799643239
1040
8.085930799643239
1040
15.90572985484165
1040
15.90572985484165
1040
23.71459348762306
1040
23.71459348762306
1040
31.51751675744897
1040
31.51751675744897
1040
31.51751675744897
1040
31.51751675744897
1040
5631.150754592308
1040
5143.463433136481
1040
5631.150754592304
1040
5144.811212604682
1040
5631.150754592304
1040
5146.155590993238
1040
5631.150754592304
1040
5148.7965186641
1040
5631.150754592301
1040
5150.086402169065
1040
5631.150754592301
1040
5153.724036692032
1040
5631.150754592301
1040
5155.899702070485
1040
5631.150754592297
1040
5159.558375173397
1040
5631.150754592297
1040
5161.007415779012
1040
5631.150754592294
1040
5162.982809906442
1040
5631.150754592294
1040
5163.490880056571
1040
5631.150754592294
1040
5163.490880056571
1070
     1
1040
5631.150754592294
1040
5163.490880056635
1040
5405.335878571308
1040
5163.490880056587
1070
     3
1040
5381.150754592509
1040
4703.490880056583
1040
0.0000000001128305
1040
-460.0
1040
0.5000000000000373
1040
3.141592653589804
1040
4.712388980384831
1070
     0
1071
       10
1005
42F
1005
42D
1005
424
1005
423
1005
422
1005
41B
1005
41E
1005
41F
1005
42E
1005
430
1070
     0
1070
     1
1040
14.55395526285152
1071
        4
1040
3948.535730855539
1040
4736.641180881263
1040
0.0
1040
4358.019448279338
1040
4687.390513988375
1040
0.0
1040
4885.040142399521
1040
4710.121602054656
1040
0.0
1040
5798.795476997271
1040
4698.756058021514
1040
0.0
1002
}
  0
INSERT
  5
3D3
330
160
100
AcDbEntity
  8
HATCH
  6
CONTINUOUS
 62
     2
100
AcDbBlockReference
  2
*U3
 10
0.0
 20
0.0
 30
0.0
1001
ACAD
1002
{
1000
R14_HATCH_DATA
1000
3D3
1011
1.0
1021
0.0
1031
0.0
1011
0.0
1021
1.0
1031
0.0
1011
0.0
1021
0.0
1031
1.0
1040
0.0
1010
0.0
1020
0.0
1030
1.0
1000
SOLID
1070
     1
1070
     1
1071
        1
1071
        5
1071
        6
1070
     3
1040
4341.920270051185
1040
4703.490880056564
1040
-0.0000000000317848
1040
-460.0
1040
0.4999999999999508
1040
1.570796326794877
1040
3.141592653589773
1070
     1
1070
     1
1040
4341.920270051224
1040
5163.490880056563
1040
4158.907568158857
1040
5163.490880056578
1070
     3
1040
4158.907568158915
1040
4703.490880056569
1040
0.0000000000282853
1040
460.0
1040
0.8660254037844051
1040
0.0000000000000135
1040
1.570796326794896
1070
     0
1070
     3
1040
4158.907568158915
1040
4703.490880056611
1040
0.0000000000282853
1040
-460.0
1040
0.8660254037844051
1040
4.712388980384689
1040
6.283185307179572
1070
     0
1070
     1
1040
4158.907568158605
1040
4243.490880056576
1040
4341.920270051151
1040
4243.490880056563
1070
     3
1040
4341.920270051185
1040
4703.490880056564
1040
-0.0000000000317848
1040
-460.0
1040
0.4999999999999508
1040
-0.0000000000000045
1040
1.570796326794889
1070
     1
1071
        6
1005
421
1005
3DA
1005
433
1005
3DC
1005
3DB
1005
41C
1070
     0
1070
     1
1040
3.78851407853068
1071
        1
1040
4418.68368512563
1040
5100.338542107001
1040
0.0
1002
}
  0
INSERT
  5
3D4
330
160
100
AcDbEntity
  8
HATCH
  6
CONTINUOUS
 62
     2
100
AcDbBlockReference
  2
*U4
 10
0.0
 20
0.0
 30
0.0
1001
ACAD
1002
{
1000
R14_HATCH_DATA
1000
3D4
1011
1.0
1021
0.0
1031
0.0
1011
0.0
1021
1.0
1031
0.0
1011
0.0
1021
0.0
1031
1.0
1040
0.0
1010
0.0
1020
0.0
1030
1.0
1000
SOLID
1070
     1
1070
     1
1071
        1
1071
        5
1071
       15
1070
     1
1040
6581.150754592147
1040
5205.417103583435
1040
6531.150754592148
1040
5205.417103583411
1070
     1
1040
6531.150754592148
1040
5205.417103583411
1040
6431.565039402157
1040
5205.417103583367
1070
     4
1070
     3
1070
     0
1070
     0
1071
       14
1071
       10
1040
573.4934220573567
1040
573.4934220573567
1040
573.4934220573567
1040
573.4934220573567
1040
577.5796073069458
1040
577.5796073069458
1040
580.7032187678156
1040
580.7032187678156
1040
582.6577157315388
1040
582.6577157315388
1040
584.1153729219212
1040
584.1153729219212
1040
584.1153729219212
1040
584.1153729219212
1040
6431.150754592207
1040
5205.417103483367
1040
6431.150754592207
1040
5205.417103483367
1040
6431.159576387951
1040
5205.417103583366
1040
6431.205509765479
1040
5205.417103583366
1040
6431.237513666343
1040
5205.417103583366
1040
6431.323185470727
1040
5205.417103583367
1040
6431.365738020399
1040
5205.417103583367
1040
6431.46280654677
1040
5205.417103583367
1040
6431.510413013249
1040
5205.417103583367
1040
6431.565039402157
1040
5205.417103583367
1070
     1
1040
6431.150752684017
1040
5205.417103483364
1040
5631.150754592295
1040
5163.490880056571
1070
     4
1070
     3
1070
     0
1070
     0
1071
       16
1071
       12
1040
0.0
1040
0.0
1040
0.0
1040
0.0
1040
7.802923269825906
1040
7.802923269825906
1040
15.61178690260732
1040
15.61178690260732
1040
23.43158595780573
1040
23.43158595780573
1040
27.47438344078628
1040
27.47438344078628
1040
31.51751675744897
1040
31.51751675744897
1040
31.51751675744897
1040
31.51751675744897
1040
5631.150754592294
1040
5163.490880056571
1040
5631.150754592294
1040
5163.490880056571
1040
5631.150754592294
1040
5162.982809906442
1040
5631.150754592297
1040
5161.007415779012
1040
5631.150754592297
1040
5159.558375173397
1040
5631.150754592301
1040
5155.899702070485
1040
5631.150754592301
1040
5153.724036692032
1040
5631.150754592301
1040
5150.086402169065
1040
5631.150754592304
1040
5148.7965186641
1040
5631.150754592304
1040
5146.155590993238
1040
5631.150754592304
1040
5144.811212604682
1040
5631.150754592308
1040
5143.463433136481
1070
     1
1040
5631.150754592311
1040
5143.463433136481
1040
5933.47901692963
1040
5143.46343313648
1070
     3
1040
5933.479016929744
1040
4683.46343313648
1040
-0.0000000001139046
1040
459.9999999999998
1040
0.5000000000000387
1040
6.283185307179603
1040
7.810429939408693
1070
     0
1070
     3
1040
5933.479016929652
1040
4723.518326976593
1040
-0.0000000001135516
1040
460.0
1040
0.5000000000000369
1040
1.614348021352328
1040
3.141592653589975
1070
     0
1070
     1
1040
5933.479016930122
1040
4263.518326976659
1040
5631.150754592708
1040
4263.518326976661
1070
     4
1070
     3
1070
     0
1070
     0
1071
       16
1071
       12
1040
0.0
1040
0.0
1040
0.0
1040
0.0
1040
7.833373006966339
1040
7.833373006966339
1040
15.6614039868266
1040
15.6614039868266
1040
23.47869829246922
1040
23.47869829246922
1040
27.49915959788129
1040
27.49915959788129
1040
31.51918357615583
1040
31.51918357615583
1040
31.51918357615583
1040
31.51918357615583
1040
5631.150754592709
1040
4263.518326976661
1040
5631.150754592709
1040
4260.907202641003
1040
5631.150754592713
1040
4258.320869864333
1040
5631.150754592717
1040
4253.491406040474
1040
5631.150754592717
1040
4251.293987945935
1040
5631.150754592717
1040
4247.583169259269
1040
5631.150754592717
1040
4246.104326029476
1040
5631.150754592717
1040
4244.560102197834
1040
5631.150754592717
1040
4244.161002211863
1040
5631.150754592717
1040
4243.625722548055
1040
5631.150754592717
1040
4243.490880056571
1040
5631.150754592717
1040
4243.490880056571
1070
     1
1040
5631.150754592721
1040
4243.49088005657
1040
6431.150752684525
1040
4201.564656630504
1070
     4
1070
     3
1070
     0
1070
     0
1071
       14
1071
       10
1040
0.0
1040
0.0
1040
0.0
1040
0.0
1040
0.8337533670213462
1040
0.8337533670213462
1040
1.205617561575039
1040
1.205617561575039
1040
1.449195334395076
1040
1.449195334395076
1040
1.473070012015925
1040
1.473070012015925
1040
1.473070012015925
1040
1.473070012015925
1040
6431.150754592666
1040
4201.564656630501
1040
6431.150754592666
1040
4201.564656630501
1040
6431.173614501806
1040
4201.564656530455
1040
6431.278432732527
1040
4201.564656530455
1040
6431.324184072545
1040
4201.564656530499
1040
6431.433781799758
1040
4201.564656530499
1040
6431.485348293842
1040
4201.564656530499
1040
6431.552837390142
1040
4201.564656530499
1040
6431.558913334855
1040
4201.564656530499
1040
6431.565039402663
1040
4201.564656530499
1070
     1
1040
6431.565039402663
1040
4201.564656530499
1040
6531.15075459261
1040
4201.564656530545
1070
     1
1040
6531.15075459261
1040
4201.564656530545
1040
6581.15075459261
1040
4201.564656530567
1070
     1
1040
6581.15075459261
1040
4201.564656530567
1040
6581.150754592147
1040
5205.417103583435
1071
       15
1005
42C
1005
42A
1005
42B
1005
419
1005
424
1005
42D
1005
42F
1005
430
1005
42E
1005
41F
1005
41A
1005
428
1005
427
1005
429
1005
425
1070
     0
1070
     1
1040
3.220708284149298
1071
        1
1040
6440.677394739395
1040
4672.157599640573
1040
0.0
1002
}
  0
INSERT
  5
3D5
330
160
100
AcDbEntity
  8
HATCH
  6
CONTINUOUS
 62
     3
100
AcDbBlockReference
  2
*U5
 10
0.0
 20
0.0
 30
0.0
1001
ACAD
1002
{
1000
R14_HATCH_DATA
1000
3D5
1011
1.0
1021
0.0
1031
0.0
1011
0.0
1021
1.0
1031
0.0
1011
0.0
1021
0.0
1031
1.0
1040
0.0
1010
0.0
1020
0.0
1030
1.0
1000
SOLID
1070
     1
1070
     1
1071
        8
1071
        7
1070
     0
1070
     1
1071
        4
1040
3651.394866266641
1040
5453.490880056601
1040
1251.39486626664
1040
5453.490880056602
1040
1851.394866266637
1040
4853.490880056603
1040
3051.394866266638
1040
4853.490880056599
1071
        4
1005
3E8
1005
3E7
1005
3EB
1005
3E9
1071
        7
1070
     0
1070
     1
1071
        4
1040
3051.394866266639
1040
4853.4908800566
1040
3051.394866266639
1040
3653.4908800566
1040
3651.394866266639
1040
3053.4908800566
1040
3651.39486626664
1040
5453.4908800566
1071
        4
1005
3E9
1005
413
1005
3E1
1005
3E0
1071
        7
1070
     1
1070
     1
1071
        4
1040
3051.394866266639
1040
4853.490880056602
1040
0.0
1040
2463.769234937403
1040
4265.865248727364
1040
-0.4142135623730494
1040
2463.769234937402
1040
4241.116511385838
1040
0.0
1040
3051.394866266639
1040
3653.490880056601
1040
0.0
1071
        4
1005
3D6
1005
40C
1005
3EA
1005
413
1071
        7
1070
     1
1070
     1
1071
       12
1040
3051.394866266636
1040
4853.490880056599
1040
0.0
1040
1851.39486626664
1040
4853.490880056602
1040
0.0
1040
2439.020497595873
1040
4265.865248727367
1040
-0.0529400521819729
1040
2441.894866266637
1040
4268.1878185133
1040
0.0
1040
2441.894866266637
1040
4318.299902554758
1040
0.0
1040
2441.894866266637
1040
4364.215177460504
1040
0.0
1040
2441.894866266636
1040
4619.6845574648
1040
0.0
1040
2460.894866266637
1040
4619.6845574648
1040
0.0
1040
2460.894866266637
1040
4364.215177460504
1040
0.0
1040
2460.894866266637
1040
4318.299902554758
1040
0.0
1040
2460.894866266637
1040
4268.1878185133
1040
-0.0529400521820098
1040
2463.769234937403
1040
4265.865248727364
1040
0.0
1071
       12
1005
3EB
1005
3D8
1005
406
1005
405
1005
40A
1005
3ED
1005
411
1005
3EE
1005
410
1005
40B
1005
40C
1005
3D6
1071
        7
1070
     1
1070
     1
1071
        4
1040
1851.394866266639
1040
4853.490880056603
1040
0.0
1040
1851.394866266638
1040
3653.490880056602
1040
0.0
1040
2439.020497595874
1040
4241.116511385835
1040
-0.414213562373135
1040
2439.020497595873
1040
4265.865248727367
1040
0.0
1071
        4
1005
3D7
1005
3EF
1005
406
1005
3D8
1071
        7
1070
     1
1070
     1
1071
       18
1040
3051.394866266638
1040
3653.490880056601
1040
0.0
1040
2463.769234937402
1040
4241.116511385838
1040
-0.0529400521819914
1040
2460.894866266637
1040
4238.793941599903
1040
0.0
1040
2460.894866266637
1040
4167.272318582532
1040
0.0
1040
2460.894866266637
1040
4165.319495613132
1040
0.0
1040
2460.894866266637
1040
4105.964591774323
1040
0.0
1040
2460.894866266637
1040
4053.019876041545
1040
0.0
1040
2460.894866266637
1040
3998.823322694203
1040
0.0
1040
2460.894866266637
1040
3998.819582225944
1040
0.0
1040
2441.894866266637
1040
3998.819582225944
1040
0.0
1040
2441.894866266637
1040
3998.823322694203
1040
0.0
1040
2441.894866266637
1040
4053.019876041545
1040
0.0
1040
2441.894866266637
1040
4105.468403405057
1040
0.0
1040
2441.894866266637
1040
4105.964591774323
1040
0.0
1040
2441.894866266637
1040
4165.319495613132
1040
0.0
1040
2441.894866266637
1040
4238.793941599903
1040
-0.0529400521819494
1040
2439.020497595874
1040
4241.116511385835
1040
0.0
1040
1851.394866266639
1040
3653.490880056603
1040
0.0
1071
       18
1005
40C
1005
40F
1005
40E
1005
3F1
1005
3FE
1005
3FB
1005
3FC
1005
3F6
1005
3F8
1005
3F7
1005
3FA
1005
3F9
1005
3F0
1005
409
1005
406
1005
3EF
1005
3EC
1005
3EA
1071
        7
1070
     0
1070
     1
1071
        4
1040
1851.39486626664
1040
3653.490880056603
1040
1251.39486626664
1040
3053.4908800566
1040
3651.394866266638
1040
3053.4908800566
1040
3051.394866266638
1040
3653.490880056601
1071
        4
1005
3EC
1005
3DE
1005
3E2
1005
3E1
1071
        7
1070
     0
1070
     1
1071
        4
1040
1851.394866266639
1040
3653.490880056603
1040
1851.394866266639
1040
4853.490880056602
1040
1251.39486626664
1040
5453.490880056602
1040
1251.39486626664
1040
3053.490880056599
1071
        4
1005
3D7
1005
3E7
1005
3DF
1005
3DE
1070
     0
1070
     1
1040
5.866515048344417
1071
        8
1040
3160.159917369019
1040
5129.916246335888
1040
0.0
1040
3359.779501484227
1040
4818.990933344671
1040
0.0
1040
2913.571061242466
1040
4425.934425005733
1040
0.0
1040
2678.724511247623
1040
4619.529438428155
1040
0.0
1040
2085.737030679178
1040
4308.604125436938
1040
0.0
1040
2332.325886805731
1040
3716.086098264092
1040
0.0
1040
2379.295206301605
1040
3387.561269038422
1040
0.0
1040
1574.945835486251
1040
3628.088373587496
1040
0.0
1002
}
  0
LINE
  5
3D6
330
160
100
AcDbEntity
  8
OBJECT
100
AcDbLine
 10
2463.769234937405
 20
4265.865248727367
 30
0.0
 11
3051.394866266639
 21
4853.490880056602
 31
0.0
  0
LINE
  5
3D7
330
160
100
AcDbEntity
  8
OBJECT
100
AcDbLine
 10
1851.394866266639
 20
3653.490880056602
 30
0.0
 11
1851.394866266639
 21
4853.490880056602
 31
0.0
  0
LINE
  5
3D8
330
160
100
AcDbEntity
  8
OBJECT
100
AcDbLine
 10
1851.394866266639
 20
4853.490880056603
 30
0.0
 11
2439.020497595873
 21
4265.865248727367
 31
0.0
  0
MTEXT
  5
3D9
330
160
100
AcDbEntity
  8
TEKST
100
AcDbMText
 10
2854.94425016328
 20
6141.674107061252
 30
0.0
 40
150.0
 41
3193.9065
 71
     1
 72
     1
  1
{\FIMPACT.TTF;Hoogte: 590 cm\PMax. valhoogte: 75 cm}
1001
ACAD
1000
MTEXTBEGIN
1070
    73
1070
     1
1070
    44
1040
1.0
1070
    74
1070
     0
1000
MTEXTEND
1000
MTEXTBEGIN
1070
    73
1070
     1
1070
    44
1040
1.0
1070
    74
1070
     0
1000
MTEXTEND
1000
MTEXTBEGIN
1070
    73
1070
     1
1070
    44
1040
1.0
1070
    74
1070
     0
1000
MTEXTEND
  0
LINE
  5
3DA
330
160
100
AcDbEntity
  8
OBJECT
100
AcDbLine
 10
4341.920270051217
 20
5163.490880056563
 30
0.0
 11
4158.90756815899
 21
5163.490880056578
 31
0.0
  0
LINE
  5
3DB
330
160
100
AcDbEntity
  8
OBJECT
100
AcDbLine
 10
4158.907568158915
 20
4243.490880056576
 30
0.0
 11
4341.92027005115
 21
4243.490880056564
 31
0.0
  0
ELLIPSE
  5
3DC
330
160
100
AcDbEntity
  8
OBJECT
100
AcDbEllipse
 10
4158.907568158915
 20
4703.490880056611
 30
0.0
 11
0.0000000000282853
 21
-460.0
 31
0.0
210
0.0
220
0.0
230
1.0
 40
0.8660254037844051
 41
0.0000000000000135
 42
1.570796326794896
  0
POLYLINE
  5
3DD
330
160
100
AcDbEntity
  8
SAFETY
 48
20.0
100
AcDb2dPolyline
 66
     1
 10
0.0
 20
0.0
 30
0.0
 70
     1
  0
VERTEX
  5
7B8
330
3DD
100
AcDbEntity
  8
SAFETY
 48
20.0
100
AcDbVertex
100
AcDb2dVertex
 10
2.895325029721788
 20
5203.164033508472
 30
0.0
 42
-0.4139845084372987
  0
VERTEX
  5
7B9
330
3DD
100
AcDbEntity
  8
SAFETY
 48
20.0
100
AcDbVertex
100
AcDb2dVertex
 10
1502.894866266642
 20
6701.990880056602
 30
0.0
  0
VERTEX
  5
7BA
330
3DD
100
AcDbEntity
  8
SAFETY
 48
20.0
100
AcDbVertex
100
AcDb2dVertex
 10
3399.89486626664
 20
6701.990880056604
 30
0.0
 42
-0.0402363044424171
  0
VERTEX
  5
7BB
330
3DD
100
AcDbEntity
  8
SAFETY
 48
20.0
100
AcDbVertex
100
AcDb2dVertex
 10
3640.143312029202
 20
6682.626110053741
 30
0.0
  0
VERTEX
  5
7BC
330
3DD
100
AcDbEntity
  8
SAFETY
 48
20.0
100
AcDbVertex
100
AcDb2dVertex
 10
6581.150754592148
 20
6205.417103583435
 30
0.0
  0
VERTEX
  5
7BD
330
3DD
100
AcDbEntity
  8
SAFETY
 48
20.0
100
AcDbVertex
100
AcDb2dVertex
 10
8581.150754592149
 20
6205.417103583435
 30
0.0
  0
VERTEX
  5
7BE
330
3DD
100
AcDbEntity
  8
SAFETY
 48
20.0
100
AcDbVertex
100
AcDb2dVertex
 10
8581.150754592611
 20
3201.564656530568
 30
0.0
  0
VERTEX
  5
7BF
330
3DD
100
AcDbEntity
  8
SAFETY
 48
20.0
100
AcDbVertex
100
AcDb2dVertex
 10
6581.15075459261
 20
3201.564656530568
 30
0.0
  0
VERTEX
  5
7C0
330
3DD
100
AcDbEntity
  8
SAFETY
 48
20.0
100
AcDbVertex
100
AcDb2dVertex
 10
4592.4113016234
 20
595.0982757323235
 30
0.0
 42
-0.2331931623585149
  0
VERTEX
  5
7C1
330
3DD
100
AcDbEntity
  8
SAFETY
 48
20.0
100
AcDbVertex
100
AcDb2dVertex
 10
3403.839351081908
 20
4.996066385720038
 30
0.0
  0
VERTEX
  5
7C2
330
3DD
100
AcDbEntity
  8
SAFETY
 48
20.0
100
AcDbVertex
100
AcDb2dVertex
 10
1503.944010535595
 20
-0.0000231027743212
 30
0.0
 42
-0.415213197727088
  0
VERTEX
  5
7C3
330
3DD
100
AcDbEntity
  8
SAFETY
 48
20.0
100
AcDbVertex
100
AcDb2dVertex
 10
-0.0000155165926117
 20
1501.167944019978
 30
0.0
  0
SEQEND
  5
7C4
330
3DD
100
AcDbEntity
  8
SAFETY
 48
20.0
  0
LINE
  5
3DE
330
160
100
AcDbEntity
  8
OBJECT
100
AcDbLine
 10
1851.394866266639
 20
3653.490880056602
 30
0.0
 11
1251.39486626664
 21
3053.4908800566
 31
0.0
  0
LINE
  5
3DF
330
160
100
AcDbEntity
  8
OBJECT
100
AcDbLine
 10
1251.39486626664
 20
3053.4908800566
 30
0.0
 11
1251.39486626664
 21
5453.490880056602
 31
0.0
  0
LINE
  5
3E0
330
160
100
AcDbEntity
  8
OBJECT
100
AcDbLine
 10
3651.39486626664
 20
5453.4908800566
 30
0.0
 11
3651.39486626664
 21
3053.4908800566
 31
0.0
  0
LINE
  5
3E1
330
160
100
AcDbEntity
  8
OBJECT
100
AcDbLine
 10
3651.39486626664
 20
3053.4908800566
 30
0.0
 11
3051.394866266639
 21
3653.490880056601
 31
0.0
  0
LINE
  5
3E2
330
160
100
AcDbEntity
  8
OBJECT
100
AcDbLine
 10
3651.39486626664
 20
3053.4908800566
 30
0.0
 11
1251.39486626664
 21
3053.4908800566
 31
0.0
  0
LINE
  5
3E3
330
160
100
AcDbEntity
  8
OBJECT
100
AcDbLine
 10
1432.531181746717
 20
1304.990880056601
 30
0.0
 11
2451.394866266644
 21
1304.990880056601
 31
0.0
  0
LINE
  5
3E4
330
160
100
AcDbEntity
  8
OBJECT
100
AcDbLine
 10
1332.531181746717
 20
1404.9908800566
 30
0.0
 11
1332.531181746717
 21
3053.4908800566
 31
0.0
  0
LINE
  5
3E5
330
160
100
AcDbEntity
  8
OBJECT
100
AcDbLine
 10
2451.394866266644
 20
1304.990880056601
 30
0.0
 11
3470.258550786573
 21
1304.9908800566
 31
0.0
  0
LINE
  5
3E6
330
160
100
AcDbEntity
  8
OBJECT
100
AcDbLine
 10
3570.258550786572
 20
3053.4908800566
 30
0.0
 11
3570.258550786572
 21
1404.9908800566
 31
0.0
  0
LINE
  5
3E7
330
160
100
AcDbEntity
  8
OBJECT
100
AcDbLine
 10
1251.39486626664
 20
5453.490880056602
 30
0.0
 11
1851.394866266639
 21
4853.490880056602
 31
0.0
  0
LINE
  5
3E8
330
160
100
AcDbEntity
  8
OBJECT
100
AcDbLine
 10
1251.39486626664
 20
5453.490880056602
 30
0.0
 11
3651.39486626664
 21
5453.490880056601
 31
0.0
  0
LINE
  5
3E9
330
160
100
AcDbEntity
  8
OBJECT
100
AcDbLine
 10
3051.394866266639
 20
4853.4908800566
 30
0.0
 11
3651.39486626664
 21
5453.4908800566
 31
0.0
  0
LINE
  5
3EA
330
160
100
AcDbEntity
  8
OBJECT
100
AcDbLine
 10
3051.394866266639
 20
3653.490880056601
 30
0.0
 11
2463.769234937405
 21
4241.116511385835
 31
0.0
  0
LINE
  5
3EB
330
160
100
AcDbEntity
  8
OBJECT
100
AcDbLine
 10
1851.394866266639
 20
4853.490880056603
 30
0.0
 11
3051.394866266639
 21
4853.4908800566
 31
0.0
  0
LINE
  5
3EC
330
160
100
AcDbEntity
  8
OBJECT
100
AcDbLine
 10
1851.394866266639
 20
3653.490880056603
 30
0.0
 11
3051.394866266639
 21
3653.490880056601
 31
0.0
  0
LINE
  5
3ED
330
160
100
AcDbEntity
  8
OBJECT
100
AcDbLine
 10
2441.894866266637
 20
4619.6845574648
 30
0.0
 11
2441.894866266637
 21
4364.215177460504
 31
0.0
  0
LINE
  5
3EE
330
160
100
AcDbEntity
  8
OBJECT
100
AcDbLine
 10
2460.894866266637
 20
4619.6845574648
 30
0.0
 11
2460.894866266637
 21
4364.215177460504
 31
0.0
  0
LINE
  5
3EF
330
160
100
AcDbEntity
  8
OBJECT
100
AcDbLine
 10
2439.020497595873
 20
4241.116511385835
 30
0.0
 11
1851.394866266639
 21
3653.490880056603
 31
0.0
  0
LINE
  5
3F0
330
160
100
AcDbEntity
  8
OBJECT
100
AcDbLine
 10
2441.894866266637
 20
4105.964591774323
 30
0.0
 11
2441.894866266637
 21
4165.319495613132
 31
0.0
  0
LINE
  5
3F1
330
160
100
AcDbEntity
  8
OBJECT
100
AcDbLine
 10
2460.894866266637
 20
4165.319495613132
 30
0.0
 11
2460.894866266637
 21
4105.964591774323
 31
0.0
  0
LINE
  5
3F2
330
160
100
AcDbEntity
  8
OBJECT
100
AcDbLine
 10
2441.894866266637
 20
4105.468403405057
 30
0.0
 11
2460.894866266637
 21
4105.468403405057
 31
0.0
  0
LINE
  5
3F3
330
160
100
AcDbEntity
  8
OBJECT
100
AcDbLine
 10
2441.894866266637
 20
4105.964591774323
 30
0.0
 11
2460.894866266637
 21
4105.964591774323
 31
0.0
  0
LINE
  5
3F4
330
160
100
AcDbEntity
  8
OBJECT
100
AcDbLine
 10
2441.894866266637
 20
4053.019876041545
 30
0.0
 11
2460.894866266637
 21
4053.019876041545
 31
0.0
  0
LINE
  5
3F5
330
160
100
AcDbEntity
  8
OBJECT
100
AcDbLine
 10
2441.894866266637
 20
3998.823322694203
 30
0.0
 11
2460.894866266637
 21
3998.823322694203
 31
0.0
  0
LINE
  5
3F6
330
160
100
AcDbEntity
  8
OBJECT
100
AcDbLine
 10
2441.894866266637
 20
3998.819582225944
 30
0.0
 11
2460.894866266637
 21
3998.819582225944
 31
0.0
  0
LINE
  5
3F7
330
160
100
AcDbEntity
  8
OBJECT
100
AcDbLine
 10
2441.894866266637
 20
4053.019876041545
 30
0.0
 11
2441.894866266637
 21
3998.823322694203
 31
0.0
  0
LINE
  5
3F8
330
160
100
AcDbEntity
  8
OBJECT
100
AcDbLine
 10
2441.894866266637
 20
3998.823322694203
 30
0.0
 11
2441.894866266637
 21
3998.819582225944
 31
0.0
  0
LINE
  5
3F9
330
160
100
AcDbEntity
  8
OBJECT
100
AcDbLine
 10
2441.894866266637
 20
4105.964591774323
 30
0.0
 11
2441.894866266637
 21
4105.468403405057
 31
0.0
  0
LINE
  5
3FA
330
160
100
AcDbEntity
  8
OBJECT
100
AcDbLine
 10
2441.894866266637
 20
4053.019876041545
 30
0.0
 11
2441.894866266637
 21
4105.468403405057
 31
0.0
  0
LINE
  5
3FB
330
160
100
AcDbEntity
  8
OBJECT
100
AcDbLine
 10
2460.894866266637
 20
3998.823322694203
 30
0.0
 11
2460.894866266637
 21
4053.019876041545
 31
0.0
  0
LINE
  5
3FC
330
160
100
AcDbEntity
  8
OBJECT
100
AcDbLine
 10
2460.894866266637
 20
3998.819582225944
 30
0.0
 11
2460.894866266637
 21
3998.823322694203
 31
0.0
  0
LINE
  5
3FD
330
160
100
AcDbEntity
  8
OBJECT
100
AcDbLine
 10
2460.894866266637
 20
4105.468403405057
 30
0.0
 11
2460.894866266637
 21
4105.964591774323
 31
0.0
  0
LINE
  5
3FE
330
160
100
AcDbEntity
  8
OBJECT
100
AcDbLine
 10
2460.894866266637
 20
4105.468403405057
 30
0.0
 11
2460.894866266637
 21
4053.019876041545
 31
0.0
  0
LINE
  5
3FF
330
160
100
AcDbEntity
  8
OBJECT
100
AcDbLine
 10
2441.894866266637
 20
4364.215177460504
 30
0.0
 11
2460.894866266637
 21
4364.215177460504
 31
0.0
  0
LINE
  5
400
330
160
100
AcDbEntity
  8
OBJECT
100
AcDbLine
 10
2441.894866266637
 20
4266.473722533058
 30
0.0
 11
2460.894866266637
 21
4266.473722533058
 31
0.0
  0
LINE
  5
401
330
160
100
AcDbEntity
  8
OBJECT
100
AcDbLine
 10
2441.894866266637
 20
4318.299902554758
 30
0.0
 11
2460.894866266637
 21
4318.299902554758
 31
0.0
  0
LINE
  5
402
330
160
100
AcDbEntity
  8
OBJECT
100
AcDbLine
 10
2441.894866266637
 20
4244.649440044257
 30
0.0
 11
2460.894866266637
 21
4244.649440044257
 31
0.0
  0
LINE
  5
403
330
160
100
AcDbEntity
  8
OBJECT
100
AcDbLine
 10
2441.894866266637
 20
4165.319495613132
 30
0.0
 11
2460.894866266637
 21
4165.319495613132
 31
0.0
  0
LINE
  5
404
330
160
100
AcDbEntity
  8
OBJECT
100
AcDbLine
 10
2441.894866266637
 20
4167.272318582532
 30
0.0
 11
2460.894866266637
 21
4167.272318582532
 31
0.0
  0
LINE
  5
405
330
160
100
AcDbEntity
  8
OBJECT
100
AcDbLine
 10
2441.894866266637
 20
4318.299902554758
 30
0.0
 11
2441.894866266637
 21
4266.473722533058
 31
0.0
  0
ARC
  5
406
330
160
100
AcDbEntity
  8
OBJECT
100
AcDbCircle
 10
2451.394866266637
 20
4253.490880056602
 30
0.0
 40
17.5
100
AcDbArc
 50
122.8783495643376
 51
237.1216504356623
  0
LINE
  5
407
330
160
100
AcDbEntity
  8
OBJECT
100
AcDbLine
 10
2441.894866266637
 20
4244.649440044257
 30
0.0
 11
2441.894866266637
 21
4266.473722533058
 31
0.0
  0
LINE
  5
408
330
160
100
AcDbEntity
  8
OBJECT
100
AcDbLine
 10
2441.894866266637
 20
4167.272318582532
 30
0.0
 11
2441.894866266637
 21
4165.319495613132
 31
0.0
  0
LINE
  5
409
330
160
100
AcDbEntity
  8
OBJECT
100
AcDbLine
 10
2441.894866266637
 20
4167.272318582532
 30
0.0
 11
2441.894866266637
 21
4244.649440044257
 31
0.0
  0
LINE
  5
40A
330
160
100
AcDbEntity
  8
OBJECT
100
AcDbLine
 10
2441.894866266637
 20
4318.299902554758
 30
0.0
 11
2441.894866266637
 21
4364.215177460504
 31
0.0
  0
LINE
  5
40B
330
160
100
AcDbEntity
  8
OBJECT
100
AcDbLine
 10
2460.894866266637
 20
4266.473722533058
 30
0.0
 11
2460.894866266637
 21
4318.299902554758
 31
0.0
  0
ARC
  5
40C
330
160
100
AcDbEntity
  8
OBJECT
100
AcDbCircle
 10
2451.394866266637
 20
4253.490880056602
 30
0.0
 40
17.5
100
AcDbArc
 50
302.8783495643375
 51
57.1216504356624
  0
LINE
  5
40D
330
160
100
AcDbEntity
  8
OBJECT
100
AcDbLine
 10
2460.894866266637
 20
4266.473722533058
 30
0.0
 11
2460.894866266637
 21
4244.649440044257
 31
0.0
  0
LINE
  5
40E
330
160
100
AcDbEntity
  8
OBJECT
100
AcDbLine
 10
2460.894866266637
 20
4165.319495613132
 30
0.0
 11
2460.894866266637
 21
4167.272318582532
 31
0.0
  0
LINE
  5
40F
330
160
100
AcDbEntity
  8
OBJECT
100
AcDbLine
 10
2460.894866266637
 20
4244.649440044257
 30
0.0
 11
2460.894866266637
 21
4167.272318582532
 31
0.0
  0
LINE
  5
410
330
160
100
AcDbEntity
  8
OBJECT
100
AcDbLine
 10
2460.894866266637
 20
4364.215177460504
 30
0.0
 11
2460.894866266637
 21
4318.299902554758
 31
0.0
  0
LINE
  5
411
330
160
100
AcDbEntity
  8
OBJECT
100
AcDbLine
 10
2441.894866266637
 20
4619.6845574648
 30
0.0
 11
2460.894866266637
 21
4619.6845574648
 31
0.0
  0
ELLIPSE
  5
412
330
160
100
AcDbEntity
  8
OBJECT
100
AcDbEllipse
 10
3793.907568158877
 20
4703.49088005659
 30
0.0
 11
-0.0000000000282853
 21
460.0
 31
0.0
210
0.0
220
0.0
230
1.0
 40
0.8660254037844051
 41
3.141592653589868
 42
5.817128316669887
  0
LINE
  5
413
330
160
100
AcDbEntity
  8
OBJECT
100
AcDbLine
 10
3051.394866266639
 20
3653.490880056601
 30
0.0
 11
3051.394866266639
 21
4853.4908800566
 31
0.0
  0
LINE
  5
414
330
160
100
AcDbEntity
  8
OBJECT
100
AcDbLine
 10
3793.907568158902
 20
4243.490880056589
 30
0.0
 11
4158.907568158944
 21
4243.490880056612
 31
0.0
  0
LINE
  5
415
330
160
100
AcDbEntity
  8
OBJECT
100
AcDbLine
 10
3651.39486626664
 20
4243.490880056612
 30
0.0
 11
3793.907568158864
 21
4243.490880056617
 31
0.0
  0
LINE
  5
416
330
160
100
AcDbEntity
  8
OBJECT
100
AcDbLine
 10
3793.907568158845
 20
5163.49088005659
 30
0.0
 11
4158.90756815889
 21
5163.490880056611
 31
0.0
  0
ELLIPSE
  5
417
330
160
100
AcDbEntity
  8
OBJECT
100
AcDbEllipse
 10
3793.907568158877
 20
4703.49088005659
 30
0.0
 11
-0.0000000000282853
 21
460.0
 31
0.0
210
0.0
220
0.0
230
1.0
 40
0.8660254037844051
 41
5.817128316669874
 42
6.283185307179754
  0
LINE
  5
418
330
160
100
AcDbEntity
  8
OBJECT
100
AcDbLine
 10
3793.907568158864
 20
5163.490880056617
 30
0.0
 11
3651.39486626664
 21
5163.490880056611
 31
0.0
  0
LINE
  5
419
330
160
100
AcDbEntity
  8
OBJECT
100
AcDbLine
 10
5631.150754592294
 20
5163.490880056571
 30
0.0
 11
6431.150754586983
 21
5205.417103583094
 31
0.0
  0
LINE
  5
41A
330
160
100
AcDbEntity
  8
OBJECT
100
AcDbLine
 10
6431.150754587441
 20
4201.564656530776
 30
0.0
 11
5631.150754592717
 21
4243.490880056571
 31
0.0
  0
ELLIPSE
  5
41B
330
160
100
AcDbEntity
  8
OBJECT
100
AcDbEllipse
 10
5381.150754592509
 20
4703.490880056583
 30
0.0
 11
0.0000000001128305
 21
-460.0
 31
0.0
210
0.0
220
0.0
230
1.0
 40
0.5000000000000373
 41
-0.0000000000001789
 42
1.570796326794769
  0
ELLIPSE
  5
41C
330
160
100
AcDbEntity
  8
OBJECT
100
AcDbEllipse
 10
4341.920270051185
 20
4703.490880056564
 30
0.0
 11
-0.0000000000317848
 21
-460.0
 31
0.0
210
0.0
220
0.0
230
1.0
 40
0.4999999999999508
 41
-0.0000000000000045
 42
1.570796326794889
  0
LINE
  5
41D
330
160
100
AcDbEntity
  8
OBJECT
100
AcDbLine
 10
4341.920270051182
 20
4243.490880056608
 30
0.0
 11
5381.150754592489
 21
4243.490880056651
 31
0.0
  0
LINE
  5
41E
330
160
100
AcDbEntity
  8
OBJECT
100
AcDbLine
 10
5381.150754592589
 20
4243.490880056582
 30
0.0
 11
5631.150754592585
 21
4243.490880056635
 31
0.0
  0
SPLINE
  5
41F
330
160
100
AcDbEntity
  8
OBJECT
100
AcDbSpline
210
0.0
220
0.0
230
1.0
 70
    24
 71
     3
 72
    16
 73
    12
 74
     0
 42
0.0000000001
 43
0.0000000001
 40
0.0
 40
0.0
 40
0.0
 40
0.0
 40
7.833373006966339
 40
7.833373006966339
 40
15.6614039868266
 40
15.6614039868266
 40
23.47869829246922
 40
23.47869829246922
 40
27.49915959788129
 40
27.49915959788129
 40
31.51918357615583
 40
31.51918357615583
 40
31.51918357615583
 40
31.51918357615583
 10
5631.150754592709
 20
4263.518326976661
 30
0.0
 10
5631.150754592709
 20
4260.907202641003
 30
0.0
 10
5631.150754592713
 20
4258.320869864333
 30
0.0
 10
5631.150754592717
 20
4253.491406040474
 30
0.0
 10
5631.150754592717
 20
4251.293987945935
 30
0.0
 10
5631.150754592717
 20
4247.583169259269
 30
0.0
 10
5631.150754592717
 20
4246.104326029476
 30
0.0
 10
5631.150754592717
 20
4244.560102197834
 30
0.0
 10
5631.150754592717
 20
4244.161002211863
 30
0.0
 10
5631.150754592717
 20
4243.625722548055
 30
0.0
 10
5631.150754592717
 20
4243.490880056571
 30
0.0
 10
5631.150754592717
 20
4243.490880056571
 30
0.0
  0
LINE
  5
420
330
160
100
AcDbEntity
  8
OBJECT
100
AcDbLine
 10
4341.92027005114
 20
5163.49088005661
 30
0.0
 11
5381.15075459245
 21
5163.490880056652
 31
0.0
  0
ELLIPSE
  5
421
330
160
100
AcDbEntity
  8
OBJECT
100
AcDbEllipse
 10
4341.920270051185
 20
4703.490880056564
 30
0.0
 11
-0.0000000000317848
 21
-460.0
 31
0.0
210
0.0
220
0.0
230
1.0
 40
0.4999999999999508
 41
1.570796326794877
 42
3.141592653589773
  0
ELLIPSE
  5
422
330
160
100
AcDbEntity
  8
OBJECT
100
AcDbEllipse
 10
5381.150754592509
 20
4703.490880056583
 30
0.0
 11
0.0000000001128305
 21
-460.0
 31
0.0
210
0.0
220
0.0
230
1.0
 40
0.5000000000000373
 41
1.570796326794754
 42
3.141592653589781
  0
LINE
  5
423
330
160
100
AcDbEntity
  8
OBJECT
100
AcDbLine
 10
5631.150754592425
 20
5163.490880056635
 30
0.0
 11
5381.15075459243
 21
5163.490880056581
 31
0.0
  0
SPLINE
  5
424
330
160
100
AcDbEntity
  8
OBJECT
100
AcDbSpline
210
0.0
220
0.0
230
1.0
 70
    24
 71
     3
 72
    16
 73
    12
 74
     0
 42
0.0000000001
 43
0.0000000001
 40
0.0
 40
0.0
 40
0.0
 40
0.0
 40
7.802923269825906
 40
7.802923269825906
 40
15.61178690260732
 40
15.61178690260732
 40
23.43158595780573
 40
23.43158595780573
 40
27.47438344078628
 40
27.47438344078628
 40
31.51751675744897
 40
31.51751675744897
 40
31.51751675744897
 40
31.51751675744897
 10
5631.150754592294
 20
5163.490880056571
 30
0.0
 10
5631.150754592294
 20
5163.490880056571
 30
0.0
 10
5631.150754592294
 20
5162.982809906442
 30
0.0
 10
5631.150754592297
 20
5161.007415779012
 30
0.0
 10
5631.150754592297
 20
5159.558375173397
 30
0.0
 10
5631.150754592301
 20
5155.899702070485
 30
0.0
 10
5631.150754592301
 20
5153.724036692032
 30
0.0
 10
5631.150754592301
 20
5150.086402169065
 30
0.0
 10
5631.150754592304
 20
5148.7965186641
 30
0.0
 10
5631.150754592304
 20
5146.155590993238
 30
0.0
 10
5631.150754592304
 20
5144.811212604682
 30
0.0
 10
5631.150754592308
 20
5143.463433136481
 30
0.0
  0
LINE
  5
425
330
160
100
AcDbEntity
  8
OBJECT
100
AcDbLine
 10
6581.150754592148
 20
5205.417103583435
 30
0.0
 11
6581.15075459261
 21
4201.564656530567
 31
0.0
  0
LINE
  5
426
330
160
100
AcDbEntity
  8
OBJECT
100
AcDbLine
 10
6551.150754592161
 20
5185.417103583419
 30
0.0
 11
6551.150754592599
 21
4221.564656530556
 31
0.0
  0
LINE
  5
427
330
160
100
AcDbEntity
  8
OBJECT
100
AcDbLine
 10
6531.15075459261
 20
4201.564656530545
 30
0.0
 11
6431.565039402663
 21
4201.564656530499
 31
0.0
  0
SPLINE
  5
428
330
160
100
AcDbEntity
  8
OBJECT
100
AcDbSpline
210
0.0
220
0.0
230
1.0
 70
     8
 71
     3
 72
    14
 73
    10
 74
     0
 42
0.0000000001
 43
0.0000000001
 40
0.0
 40
0.0
 40
0.0
 40
0.0
 40
0.8337533670213462
 40
0.8337533670213462
 40
1.205617561575039
 40
1.205617561575039
 40
1.449195334395076
 40
1.449195334395076
 40
1.473070012015925
 40
1.473070012015925
 40
1.473070012015925
 40
1.473070012015925
 10
6431.150754592666
 20
4201.564656630501
 30
0.0
 10
6431.150754592666
 20
4201.564656630501
 30
0.0
 10
6431.173614501806
 20
4201.564656530455
 30
0.0
 10
6431.278432732527
 20
4201.564656530455
 30
0.0
 10
6431.324184072545
 20
4201.564656530499
 30
0.0
 10
6431.433781799758
 20
4201.564656530499
 30
0.0
 10
6431.485348293842
 20
4201.564656530499
 30
0.0
 10
6431.552837390142
 20
4201.564656530499
 30
0.0
 10
6431.558913334855
 20
4201.564656530499
 30
0.0
 10
6431.565039402663
 20
4201.564656530499
 30
0.0
  0
LINE
  5
429
330
160
100
AcDbEntity
  8
OBJECT
100
AcDbLine
 10
6581.15075459261
 20
4201.564656530567
 30
0.0
 11
6531.15075459261
 21
4201.564656530545
 31
0.0
  0
LINE
  5
42A
330
160
100
AcDbEntity
  8
OBJECT
100
AcDbLine
 10
6431.565039402157
 20
5205.417103583367
 30
0.0
 11
6531.150754592153
 21
5205.417103583411
 31
0.0
  0
SPLINE
  5
42B
330
160
100
AcDbEntity
  8
OBJECT
100
AcDbSpline
210
0.0
220
0.0
230
1.0
 70
     8
 71
     3
 72
    14
 73
    10
 74
     0
 42
0.0000000001
 43
0.0000000001
 40
573.4934220573567
 40
573.4934220573567
 40
573.4934220573567
 40
573.4934220573567
 40
574.9510792477391
 40
574.9510792477391
 40
576.9055762114622
 40
576.9055762114622
 40
580.0291876723321
 40
580.0291876723321
 40
584.1153729219212
 40
584.1153729219212
 40
584.1153729219212
 40
584.1153729219212
 10
6431.565039402157
 20
5205.417103583367
 30
0.0
 10
6431.510413013249
 20
5205.417103583367
 30
0.0
 10
6431.46280654677
 20
5205.417103583367
 30
0.0
 10
6431.365738020399
 20
5205.417103583367
 30
0.0
 10
6431.323185470727
 20
5205.417103583367
 30
0.0
 10
6431.237513666343
 20
5205.417103583366
 30
0.0
 10
6431.205509765479
 20
5205.417103583366
 30
0.0
 10
6431.159576387951
 20
5205.417103583366
 30
0.0
 10
6431.150754592207
 20
5205.417103483367
 30
0.0
 10
6431.150754592207
 20
5205.417103483367
 30
0.0
  0
LINE
  5
42C
330
160
100
AcDbEntity
  8
OBJECT
100
AcDbLine
 10
6531.150754592148
 20
5205.417103583411
 30
0.0
 11
6581.150754592148
 21
5205.417103583435
 31
0.0
  0
LINE
  5
42D
330
160
100
AcDbEntity
  8
0
100
AcDbLine
 10
5631.150754592308
 20
5143.463433136481
 30
0.0
 11
5933.479016929633
 21
5143.463433136481
 31
0.0
  0
LINE
  5
42E
330
160
100
AcDbEntity
  8
0
100
AcDbLine
 10
5631.150754592709
 20
4263.518326976661
 30
0.0
 11
5933.479016929633
 21
4263.518326976661
 31
0.0
  0
ELLIPSE
  5
42F
330
160
100
AcDbEntity
  8
OBJECT
100
AcDbEllipse
 10
5933.479016929744
 20
4683.46343313648
 30
0.0
 11
-0.0000000001139046
 21
459.9999999999998
 31
0.0
210
0.0
220
0.0
230
1.0
 40
0.5000000000000387
 41
-1.527244632229107
 42
-0.0000000000000169
  0
ELLIPSE
  5
430
330
160
100
AcDbEntity
  8
OBJECT
100
AcDbEllipse
 10
5933.479016929652
 20
4723.518326976593
 30
0.0
 11
-0.0000000001135516
 21
460.0
 31
0.0
210
0.0
220
0.0
230
1.0
 40
0.5000000000000369
 41
3.141592653589611
 42
4.668837285827257
  0
ARC
  5
431
330
160
100
AcDbEntity
  8
OBJECT
100
AcDbCircle
 10
1432.531181746717
 20
1404.9908800566
 30
0.0
 40
100.0
100
AcDbArc
 50
180.0
 51
270.0
  0
ARC
  5
432
330
160
100
AcDbEntity
  8
OBJECT
100
AcDbCircle
 10
3470.258550786573
 20
1404.9908800566
 30
0.0
 40
100.0
100
AcDbArc
 50
270.0
 51
0.0
  0
ELLIPSE
  5
433
330
160
100
AcDbEntity
  8
OBJECT
100
AcDbEllipse
 10
4158.907568158915
 20
4703.490880056569
 30
0.0
 11
0.0000000000282853
 21
460.0
 31
0.0
210
0.0
220
0.0
230
-1.0
 40
0.8660254037844051
 41
0.0000000000000135
 42
1.570796326794896
  0
ENDBLK
  5
162
330
160
100
AcDbEntity
  8
0
100
AcDbBlockEnd
  0
BLOCK
  5
45E
330
453
100
AcDbEntity
  8
0
100
AcDbBlockBegin
  2
*U1
 70
     1
 10
0.0
 20
0.0
 30
0.0
  3
*U1
  1

  0
SOLID
  5
454
330
453
100
AcDbEntity
  8
HATCH
  6
CONTINUOUS
 62
     3
100
AcDbTrace
 10
2451.394866266644
 20
1309.9908800566
 30
0.0
 11
2451.394866266643
 21
1304.990880056601
 31
0.0
 12
3470.258550786573
 22
1304.9908800566
 32
0.0
 13
3470.258550786573
 23
1304.9908800566
 33
0.0
210
0.0
220
0.0
230
1.0
  0
SOLID
  5
455
330
453
100
AcDbEntity
  8
HATCH
  6
CONTINUOUS
 62
     3
100
AcDbTrace
 10
3540.969228905227
 20
1334.280201937946
 30
0.0
 11
2451.394866266644
 21
1309.9908800566
 31
0.0
 12
3470.258550786573
 22
1304.9908800566
 32
0.0
 13
3470.258550786573
 23
1304.9908800566
 33
0.0
210
0.0
220
0.0
230
1.0
  0
SOLID
  5
456
330
453
100
AcDbEntity
  8
HATCH
  6
CONTINUOUS
 62
     3
100
AcDbTrace
 10
3570.258550786572
 20
1404.9908800566
 30
0.0
 11
2451.394866266644
 21
1309.9908800566
 31
0.0
 12
3540.969228905227
 22
1334.280201937946
 32
0.0
 13
3540.969228905227
 23
1334.280201937946
 33
0.0
210
0.0
220
0.0
230
1.0
  0
SOLID
  5
457
330
453
100
AcDbEntity
  8
HATCH
  6
CONTINUOUS
 62
     3
100
AcDbTrace
 10
3570.258550786572
 20
1404.9908800566
 30
0.0
 11
3570.258550786572
 21
3053.4908800566
 31
0.0
 12
2451.394866266644
 22
3053.4908800566
 32
0.0
 13
2451.394866266644
 23
3053.4908800566
 33
0.0
210
0.0
220
0.0
230
1.0
  0
SOLID
  5
458
330
453
100
AcDbEntity
  8
HATCH
  6
CONTINUOUS
 62
     3
100
AcDbTrace
 10
2451.394866266644
 20
3053.4908800566
 30
0.0
 11
2451.394866266644
 21
1309.9908800566
 31
0.0
 12
3570.258550786572
 22
1404.9908800566
 32
0.0
 13
3570.258550786572
 23
1404.9908800566
 33
0.0
210
0.0
220
0.0
230
1.0
  0
SOLID
  5
459
330
453
100
AcDbEntity
  8
HATCH
  6
CONTINUOUS
 62
     3
100
AcDbTrace
 10
2451.394866266644
 20
3053.4908800566
 30
0.0
 11
1332.531181746717
 21
3053.4908800566
 31
0.0
 12
2451.394866266644
 22
1309.9908800566
 32
0.0
 13
2451.394866266644
 23
1309.9908800566
 33
0.0
210
0.0
220
0.0
230
1.0
  0
SOLID
  5
45A
330
453
100
AcDbEntity
  8
HATCH
  6
CONTINUOUS
 62
     3
100
AcDbTrace
 10
1332.531181746717
 20
1404.9908800566
 30
0.0
 11
2451.394866266644
 21
1309.9908800566
 31
0.0
 12
1332.531181746717
 22
3053.4908800566
 32
0.0
 13
1332.531181746717
 23
3053.4908800566
 33
0.0
210
0.0
220
0.0
230
1.0
  0
SOLID
  5
45B
330
453
100
AcDbEntity
  8
HATCH
  6
CONTINUOUS
 62
     3
100
AcDbTrace
 10
2451.394866266644
 20
1309.9908800566
 30
0.0
 11
1332.531181746717
 21
1404.9908800566
 31
0.0
 12
2451.394866266644
 22
1304.990880056601
 32
0.0
 13
2451.394866266644
 23
1304.990880056601
 33
0.0
210
0.0
220
0.0
230
1.0
  0
SOLID
  5
45C
330
453
100
AcDbEntity
  8
HATCH
  6
CONTINUOUS
 62
     3
100
AcDbTrace
 10
1361.820503628062
 20
1334.280201937946
 30
0.0
 11
2451.394866266644
 21
1304.990880056601
 31
0.0
 12
1332.531181746717
 22
1404.9908800566
 32
0.0
 13
1332.531181746717
 23
1404.9908800566
 33
0.0
  0
SOLID
  5
45D
330
453
100
AcDbEntity
  8
HATCH
  6
CONTINUOUS
 62
     3
100
AcDbTrace
 10
2451.394866266644
 20
1304.990880056601
 30
0.0
 11
1361.820503628062
 21
1334.280201937946
 31
0.0
 12
1432.531181746717
 22
1304.990880056601
 32
0.0
 13
1432.531181746717
 23
1304.990880056601
 33
0.0
210
0.0
220
0.0
230
1.0
  0
ENDBLK
  5
45F
330
453
100
AcDbEntity
  8
0
100
AcDbBlockEnd
  0
BLOCK
  5
686
330
460
100
AcDbEntity
  8
0
100
AcDbBlockBegin
  2
*U2
 70
     1
 10
0.0
 20
0.0
 30
0.0
  3
*U2
  1

  0
SOLID
  5
461
330
460
100
AcDbEntity
  8
HATCH
  6
CONTINUOUS
 62
     2
100
AcDbTrace
 10
3793.907568158935
 20
4243.490880056589
 30
0.0
 11
3810.300748071663
 21
4243.880518043508
 31
0.0
 12
3651.39486626664
 22
4243.490880056612
 32
0.0
 13
3651.39486626664
 23
4243.490880056612
 33
0.0
210
0.0
220
0.0
230
1.0
  0
SOLID
  5
462
330
460
100
AcDbEntity
  8
HATCH
  6
CONTINUOUS
 62
     2
100
AcDbTrace
 10
3826.666156655607
 20
4245.048771927036
 30
0.0
 11
3651.39486626664
 21
4243.490880056612
 31
0.0
 12
3810.300748071663
 22
4243.880518043508
 32
0.0
 13
3810.300748071663
 23
4243.880518043508
 33
0.0
210
0.0
220
0.0
230
1.0
  0
SOLID
  5
463
330
460
100
AcDbEntity
  8
HATCH
  6
CONTINUOUS
 62
     2
100
AcDbTrace
 10
3651.39486626664
 20
4243.490880056612
 30
0.0
 11
3826.666156655607
 21
4245.048771927036
 31
0.0
 12
3651.394866266639
 22
5163.490880056611
 32
0.0
 13
3651.394866266639
 23
5163.490880056611
 33
0.0
210
0.0
220
0.0
230
1.0
  0
SOLID
  5
464
330
460
100
AcDbEntity
  8
HATCH
  6
CONTINUOUS
 62
     2
100
AcDbTrace
 10
3842.976069628784
 20
4246.993662593733
 30
0.0
 11
3651.394866266639
 21
5163.490880056611
 31
0.0
 12
3826.666156655607
 22
4245.048771927036
 32
0.0
 13
3826.666156655607
 23
4245.048771927036
 33
0.0
210
0.0
220
0.0
230
1.0
  0
SOLID
  5
465
330
460
100
AcDbEntity
  8
HATCH
  6
CONTINUOUS
 62
     2
100
AcDbTrace
 10
3651.394866266639
 20
5163.490880056611
 30
0.0
 11
3842.976069628784
 21
4246.993662593733
 31
0.0
 12
3793.907568158356
 22
5163.490880056617
 32
0.0
 13
3793.907568158356
 23
5163.490880056617
 33
0.0
210
0.0
220
0.0
230
1.0
  0
SOLID
  5
466
330
460
100
AcDbEntity
  8
HATCH
  6
CONTINUOUS
 62
     2
100
AcDbTrace
 10
3859.20285672312
 20
4249.711895246711
 30
0.0
 11
3793.907568158356
 21
5163.490880056617
 31
0.0
 12
3842.976069628784
 22
4246.993662593733
 32
0.0
 13
3842.976069628784
 23
4246.993662593733
 33
0.0
210
0.0
220
0.0
230
1.0
  0
SOLID
  5
467
330
460
100
AcDbEntity
  8
HATCH
  6
CONTINUOUS
 62
     2
100
AcDbTrace
 10
3793.907568158356
 20
5163.490880056617
 30
0.0
 11
3859.20285672312
 21
4249.711895246711
 31
0.0
 12
3809.375671215252
 22
5163.143992432778
 32
0.0
 13
3809.375671215252
 23
5163.143992432778
 33
0.0
210
0.0
220
0.0
230
1.0
  0
SOLID
  5
468
330
460
100
AcDbEntity
  8
HATCH
  6
CONTINUOUS
 62
     2
100
AcDbTrace
 10
3875.319028492276
 20
4253.198864987281
 30
0.0
 11
3809.375671215252
 21
5163.143992432778
 31
0.0
 12
3859.20285672312
 22
4249.711895246711
 32
0.0
 13
3859.20285672312
 23
4249.711895246711
 33
0.0
210
0.0
220
0.0
230
1.0
  0
SOLID
  5
469
330
460
100
AcDbEntity
  8
HATCH
  6
CONTINUOUS
 62
     2
100
AcDbTrace
 10
3809.375671215252
 20
5163.143992432778
 30
0.0
 11
3875.319028492276
 21
4253.198864987281
 31
0.0
 12
3824.820445169488
 22
5162.103852739696
 32
0.0
 13
3824.820445169488
 23
5162.103852739696
 33
0.0
210
0.0
220
0.0
230
1.0
  0
SOLID
  5
46A
330
460
100
AcDbEntity
  8
HATCH
  6
CONTINUOUS
 62
     2
100
AcDbTrace
 10
3891.297282880929
 20
4257.448664616005
 30
0.0
 11
3824.820445169488
 21
5162.103852739696
 31
0.0
 12
3875.319028492276
 22
4253.198864987281
 32
0.0
 13
3875.319028492276
 23
4253.198864987281
 33
0.0
210
0.0
220
0.0
230
1.0
  0
SOLID
  5
46B
330
460
100
AcDbEntity
  8
HATCH
  6
CONTINUOUS
 62
     2
100
AcDbTrace
 10
3824.820445169488
 20
5162.103852739696
 30
0.0
 11
3891.297282880929
 21
4257.448664616005
 31
0.0
 12
3840.218596104369
 22
5160.372029723373
 32
0.0
 13
3840.218596104369
 23
5160.372029723373
 33
0.0
210
0.0
220
0.0
230
1.0
  0
SOLID
  5
46C
330
460
100
AcDbEntity
  8
HATCH
  6
CONTINUOUS
 62
     2
100
AcDbTrace
 10
3907.110551476577
 20
4262.454094639964
 30
0.0
 11
3840.218596104369
 21
5160.372029723373
 31
0.0
 12
3891.297282880929
 22
4257.448664616005
 32
0.0
 13
3891.297282880929
 23
4257.448664616005
 33
0.0
210
0.0
220
0.0
230
1.0
  0
SOLID
  5
46D
330
460
100
AcDbEntity
  8
HATCH
  6
CONTINUOUS
 62
     2
100
AcDbTrace
 10
3840.218596104369
 20
5160.372029723373
 30
0.0
 11
3907.110551476577
 21
4262.454094639964
 31
0.0
 12
3855.546900419943
 22
5157.951135331509
 32
0.0
 13
3855.546900419943
 23
5157.951135331509
 33
0.0
210
0.0
220
0.0
230
1.0
  0
SOLID
  5
46E
330
460
100
AcDbEntity
  8
HATCH
  6
CONTINUOUS
 62
     2
100
AcDbTrace
 10
3922.732045365562
 20
4268.20667546925
 30
0.0
 11
3855.546900419943
 21
5157.951135331509
 31
0.0
 12
3907.110551476577
 22
4262.454094639964
 32
0.0
 13
3907.110551476577
 23
4262.454094639964
 33
0.0
210
0.0
220
0.0
230
1.0
  0
SOLID
  5
46F
330
460
100
AcDbEntity
  8
HATCH
  6
CONTINUOUS
 62
     2
100
AcDbTrace
 10
3855.546900419943
 20
5157.951135331509
 30
0.0
 11
3922.732045365562
 21
4268.20667546925
 31
0.0
 12
3870.782239859423
 22
5154.844820774119
 32
0.0
 13
3870.782239859423
 23
5154.844820774119
 33
0.0
210
0.0
220
0.0
230
1.0
  0
SOLID
  5
470
330
460
100
AcDbEntity
  8
HATCH
  6
CONTINUOUS
 62
     2
100
AcDbTrace
 10
3938.135300515572
 20
4274.696661782065
 30
0.0
 11
3870.782239859423
 21
5154.844820774119
 31
0.0
 12
3922.732045365562
 22
4268.20667546925
 32
0.0
 13
3922.732045365562
 23
4268.20667546925
 33
0.0
210
0.0
220
0.0
230
1.0
  0
SOLID
  5
471
330
460
100
AcDbEntity
  8
HATCH
  6
CONTINUOUS
 62
     2
100
AcDbTrace
 10
3870.782239859423
 20
5154.844820774119
 30
0.0
 11
3938.135300515572
 21
4274.696661782065
 31
0.0
 12
3885.901636376303
 22
5151.057771016747
 32
0.0
 13
3885.901636376303
 23
5151.057771016747
 33
0.0
210
0.0
220
0.0
230
1.0
  0
SOLID
  5
472
330
460
100
AcDbEntity
  8
HATCH
  6
CONTINUOUS
 62
     2
100
AcDbTrace
 10
3953.294222607786
 20
4281.913059034051
 30
0.0
 11
3885.901636376303
 21
5151.057771016747
 31
0.0
 12
3938.135300515572
 22
4274.696661782065
 32
0.0
 13
3938.135300515572
 23
4274.696661782065
 33
0.0
210
0.0
220
0.0
230
1.0
  0
SOLID
  5
473
330
460
100
AcDbEntity
  8
HATCH
  6
CONTINUOUS
 62
     2
100
AcDbTrace
 10
3885.901636376303
 20
5151.057771016747
 30
0.0
 11
3953.294222607786
 21
4281.913059034051
 31
0.0
 12
3900.882286790014
 22
5146.595697714574
 32
0.0
 13
3900.882286790014
 23
5146.595697714574
 33
0.0
210
0.0
220
0.0
230
1.0
  0
SOLID
  5
474
330
460
100
AcDbEntity
  8
HATCH
  6
CONTINUOUS
 62
     2
100
AcDbTrace
 10
3968.183131242694
 20
4289.843642083912
 30
0.0
 11
3900.882286790014
 21
5146.595697714574
 31
0.0
 12
3953.294222607786
 22
4281.913059034051
 32
0.0
 13
3953.294222607786
 23
4281.913059034051
 33
0.0
210
0.0
220
0.0
230
1.0
  0
SOLID
  5
475
330
460
100
AcDbEntity
  8
HATCH
  6
CONTINUOUS
 62
     2
100
AcDbTrace
 10
3900.882286790014
 20
5146.595697714574
 30
0.0
 11
3968.183131242694
 21
4289.843642083912
 31
0.0
 12
3915.701597177836
 22
5141.465330598059
 32
0.0
 13
3915.701597177836
 23
5141.465330598059
 33
0.0
210
0.0
220
0.0
230
1.0
  0
SOLID
  5
476
330
460
100
AcDbEntity
  8
HATCH
  6
CONTINUOUS
 62
     2
100
AcDbTrace
 10
3982.776803444695
 20
4298.474975903761
 30
0.0
 11
3915.701597177836
 21
5141.465330598059
 31
0.0
 12
3968.183131242694
 22
4289.843642083912
 32
0.0
 13
3968.183131242694
 23
4289.843642083912
 33
0.0
210
0.0
220
0.0
230
1.0
  0
SOLID
  5
477
330
460
100
AcDbEntity
  8
HATCH
  6
CONTINUOUS
 62
     2
100
AcDbTrace
 10
3915.701597177836
 20
5141.465330598059
 30
0.0
 11
3982.776803444695
 21
4298.474975903761
 31
0.0
 12
3930.337216951216
 22
5135.674407323105
 32
0.0
 13
3930.337216951216
 23
5135.674407323105
 33
0.0
210
0.0
220
0.0
230
1.0
  0
SOLID
  5
478
330
460
100
AcDbEntity
  8
HATCH
  6
CONTINUOUS
 62
     2
100
AcDbTrace
 10
3997.050516391796
 20
4307.7924383391
 30
0.0
 11
3930.337216951216
 21
5135.674407323105
 31
0.0
 12
3982.776803444695
 22
4298.474975903761
 32
0.0
 13
3982.776803444695
 23
4298.474975903761
 33
0.0
210
0.0
220
0.0
230
1.0
  0
SOLID
  5
479
330
460
100
AcDbEntity
  8
HATCH
  6
CONTINUOUS
 62
     2
100
AcDbTrace
 10
3930.337216951216
 20
5135.674407323105
 30
0.0
 11
3997.050516391796
 21
4307.7924383391
 31
0.0
 12
3944.767072565086
 22
5129.231661801084
 32
0.0
 13
3944.767072565086
 23
5129.231661801084
 33
0.0
210
0.0
220
0.0
230
1.0
  0
SOLID
  5
47A
330
460
100
AcDbEntity
  8
HATCH
  6
CONTINUOUS
 62
     2
100
AcDbTrace
 10
4010.980089298003
 20
4317.780244879902
 30
0.0
 11
3944.767072565086
 21
5129.231661801084
 31
0.0
 12
3997.050516391796
 22
4307.7924383391
 32
0.0
 13
3997.050516391796
 23
4307.7924383391
 33
0.0
  0
SOLID
  5
47B
330
460
100
AcDbEntity
  8
HATCH
  6
CONTINUOUS
 62
     2
100
AcDbTrace
 10
3944.767072565086
 20
5129.231661801084
 30
0.0
 11
4010.980089298003
 21
4317.780244879902
 31
0.0
 12
3958.969400809331
 22
5122.146811026273
 32
0.0
 13
3958.969400809331
 23
5122.146811026273
 33
0.0
210
0.0
220
0.0
230
1.0
  0
SOLID
  5
47C
330
460
100
AcDbEntity
  8
HATCH
  6
CONTINUOUS
 62
     2
100
AcDbTrace
 10
4024.541924377465
 20
4328.421475400801
 30
0.0
 11
3958.969400809331
 21
5122.146811026273
 31
0.0
 12
4010.980089298003
 22
4317.780244879902
 32
0.0
 13
4010.980089298003
 23
4317.780244879902
 33
0.0
210
0.0
220
0.0
230
1.0
  0
SOLID
  5
47D
330
460
100
AcDbEntity
  8
HATCH
  6
CONTINUOUS
 62
     2
100
AcDbTrace
 10
3958.969400809331
 20
5122.146811026273
 30
0.0
 11
4024.541924377465
 21
4328.421475400801
 31
0.0
 12
3972.922781632224
 22
5114.430540420634
 32
0.0
 13
3972.922781632224
 23
5114.430540420634
 33
0.0
210
0.0
220
0.0
230
1.0
  0
SOLID
  5
47E
330
460
100
AcDbEntity
  8
HATCH
  6
CONTINUOUS
 62
     2
100
AcDbTrace
 10
4037.713046820967
 20
4339.698102825106
 30
0.0
 11
3972.922781632224
 21
5114.430540420634
 31
0.0
 12
4024.541924377465
 22
4328.421475400801
 32
0.0
 13
4024.541924377465
 23
4328.421475400801
 33
0.0
210
0.0
220
0.0
230
1.0
  0
SOLID
  5
47F
330
460
100
AcDbEntity
  8
HATCH
  6
CONTINUOUS
 62
     2
100
AcDbTrace
 10
3972.922781632224
 20
5114.430540420634
 30
0.0
 11
4037.713046820967
 21
4339.698102825106
 31
0.0
 12
3987.415948280521
 22
5105.576288600087
 32
0.0
 13
3987.415948280521
 23
5105.576288600087
 33
0.0
  0
SOLID
  5
480
330
460
100
AcDbEntity
  8
HATCH
  6
CONTINUOUS
 62
     2
100
AcDbTrace
 10
4050.471143717058
 20
4351.591023664084
 30
0.0
 11
3987.415948280521
 21
5105.576288600087
 31
0.0
 12
4037.713046820967
 22
4339.698102825106
 32
0.0
 13
4037.713046820967
 23
4339.698102825106
 33
0.0
210
0.0
220
0.0
230
1.0
  0
SOLID
  5
481
330
460
100
AcDbEntity
  8
HATCH
  6
CONTINUOUS
 62
     2
100
AcDbTrace
 10
3987.415948280521
 20
5105.576288600087
 30
0.0
 11
4050.471143717058
 21
4351.591023664084
 31
0.0
 12
4001.581296599769
 22
5096.040872652783
 32
0.0
 13
4001.581296599769
 23
5096.040872652783
 33
0.0
210
0.0
220
0.0
230
1.0
  0
SOLID
  5
482
330
460
100
AcDbEntity
  8
HATCH
  6
CONTINUOUS
 62
     2
100
AcDbTrace
 10
4062.794601851861
 20
4364.080090379762
 30
0.0
 11
4001.581296599769
 21
5096.040872652783
 31
0.0
 12
4050.471143717058
 22
4351.591023664084
 32
0.0
 13
4050.471143717058
 23
4351.591023664084
 33
0.0
210
0.0
220
0.0
230
1.0
  0
SOLID
  5
483
330
460
100
AcDbEntity
  8
HATCH
  6
CONTINUOUS
 62
     2
100
AcDbTrace
 10
4001.581296599769
 20
5096.040872652783
 30
0.0
 11
4062.794601851861
 21
4364.080090379762
 31
0.0
 12
4015.394829382127
 22
5085.84044631905
 32
0.0
 13
4015.394829382127
 23
5085.84044631905
 33
0.0
210
0.0
220
0.0
230
1.0
  0
SOLID
  5
484
330
460
100
AcDbEntity
  8
HATCH
  6
CONTINUOUS
 62
     2
100
AcDbTrace
 10
4074.66254432355
 20
4377.144145516427
 30
0.0
 11
4015.394829382127
 21
5085.84044631905
 31
0.0
 12
4062.794601851861
 22
4364.080090379762
 32
0.0
 13
4062.794601851861
 23
4364.080090379762
 33
0.0
210
0.0
220
0.0
230
1.0
  0
SOLID
  5
485
330
460
100
AcDbEntity
  8
HATCH
  6
CONTINUOUS
 62
     2
100
AcDbTrace
 10
4015.394829382127
 20
5085.84044631905
 30
0.0
 11
4074.66254432355
 21
4377.144145516427
 31
0.0
 12
4028.833145422787
 22
5074.99228991881
 32
0.0
 13
4028.833145422787
 23
5074.99228991881
 33
0.0
210
0.0
220
0.0
230
1.0
  0
SOLID
  5
486
330
460
100
AcDbEntity
  8
HATCH
  6
CONTINUOUS
 62
     2
100
AcDbTrace
 10
4086.05486590946
 20
4390.761057543016
 30
0.0
 11
4028.833145422787
 21
5074.99228991881
 31
0.0
 12
4074.66254432355
 22
4377.144145516427
 32
0.0
 13
4074.66254432355
 23
4377.144145516427
 33
0.0
210
0.0
220
0.0
230
1.0
  0
SOLID
  5
487
330
460
100
AcDbEntity
  8
HATCH
  6
CONTINUOUS
 62
     2
100
AcDbTrace
 10
4028.833145422787
 20
5074.99228991881
 30
0.0
 11
4086.05486590946
 21
4390.761057543016
 31
0.0
 12
4041.873479163446
 22
5063.514781077373
 32
0.0
 13
4041.873479163446
 23
5063.514781077373
 33
0.0
210
0.0
220
0.0
230
1.0
  0
SOLID
  5
488
330
460
100
AcDbEntity
  8
HATCH
  6
CONTINUOUS
 62
     2
100
AcDbTrace
 10
4096.952267125899
 20
4404.90775834566
 30
0.0
 11
4041.873479163446
 21
5063.514781077373
 31
0.0
 12
4086.05486590946
 22
4390.761057543016
 32
0.0
 13
4086.05486590946
 23
4390.761057543016
 33
0.0
210
0.0
220
0.0
230
1.0
  0
SOLID
  5
489
330
460
100
AcDbEntity
  8
HATCH
  6
CONTINUOUS
 62
     2
100
AcDbTrace
 10
4041.873479163446
 20
5063.514781077373
 30
0.0
 11
4096.952267125899
 21
4404.90775834566
 31
0.0
 12
4054.493739258942
 22
5051.427363592306
 32
0.0
 13
4054.493739258942
 23
5051.427363592306
 33
0.0
210
0.0
220
0.0
230
1.0
  0
SOLID
  5
48A
330
460
100
AcDbEntity
  8
HATCH
  6
CONTINUOUS
 62
     2
100
AcDbTrace
 10
4107.336286922986
 20
4419.560282306871
 30
0.0
 11
4054.493739258942
 21
5051.427363592306
 31
0.0
 12
4096.952267125899
 22
4404.90775834566
 32
0.0
 13
4096.952267125899
 23
4404.90775834566
 33
0.0
210
0.0
220
0.0
230
1.0
  0
SOLID
  5
48B
330
460
100
AcDbEntity
  8
HATCH
  6
CONTINUOUS
 62
     2
100
AcDbTrace
 10
4054.493739258942
 20
5051.427363592306
 30
0.0
 11
4107.336286922986
 21
4419.560282306871
 31
0.0
 12
4066.672546001719
 22
5038.750514494111
 32
0.0
 13
4066.672546001719
 23
5038.750514494111
 33
0.0
210
0.0
220
0.0
230
1.0
  0
SOLID
  5
48C
330
460
100
AcDbEntity
  8
HATCH
  6
CONTINUOUS
 62
     2
100
AcDbTrace
 10
4117.189333959114
 20
4434.693806905175
 30
0.0
 11
4066.672546001719
 21
5038.750514494111
 31
0.0
 12
4107.336286922986
 22
4419.560282306871
 32
0.0
 13
4107.336286922986
 23
4419.560282306871
 33
0.0
210
0.0
220
0.0
230
1.0
  0
SOLID
  5
48D
330
460
100
AcDbEntity
  8
HATCH
  6
CONTINUOUS
 62
     2
100
AcDbTrace
 10
4066.672546001719
 20
5038.750514494111
 30
0.0
 11
4117.189333959114
 21
4434.693806905175
 31
0.0
 12
4078.389267540724
 22
5025.505709356542
 32
0.0
 13
4078.389267540724
 23
5025.505709356542
 33
0.0
210
0.0
220
0.0
230
1.0
  0
SOLID
  5
48E
330
460
100
AcDbEntity
  8
HATCH
  6
CONTINUOUS
 62
     2
100
AcDbTrace
 10
4126.494716402055
 20
4450.282694766396
 30
0.0
 11
4078.389267540724
 21
5025.505709356542
 31
0.0
 12
4117.189333959114
 22
4434.693806905175
 32
0.0
 13
4117.189333959114
 23
4434.693806905175
 33
0.0
210
0.0
220
0.0
230
1.0
  0
SOLID
  5
48F
330
460
100
AcDbEntity
  8
HATCH
  6
CONTINUOUS
 62
     2
100
AcDbTrace
 10
4078.389267540724
 20
5025.505709356542
 30
0.0
 11
4126.494716402055
 21
4450.282694766396
 31
0.0
 12
4089.624054833374
 22
5011.715385915297
 32
0.0
 13
4089.624054833374
 23
5011.715385915297
 33
0.0
210
0.0
220
0.0
230
1.0
  0
SOLID
  5
490
330
460
100
AcDbEntity
  8
HATCH
  6
CONTINUOUS
 62
     2
100
AcDbTrace
 10
4135.236670206232
 20
4466.300537095388
 30
0.0
 11
4089.624054833374
 21
5011.715385915297
 31
0.0
 12
4126.494716402055
 22
4450.282694766396
 32
0.0
 13
4126.494716402055
 23
4450.282694766396
 33
0.0
210
0.0
220
0.0
230
1.0
  0
SOLID
  5
491
330
460
100
AcDbEntity
  8
HATCH
  6
CONTINUOUS
 62
     2
100
AcDbTrace
 10
4089.624054833374
 20
5011.715385915297
 30
0.0
 11
4135.236670206232
 21
4466.300537095388
 31
0.0
 12
4100.357875271391
 22
4997.402906056744
 32
0.0
 13
4100.357875271391
 23
4997.402906056744
 33
0.0
210
0.0
220
0.0
230
1.0
  0
SOLID
  5
492
330
460
100
AcDbEntity
  8
HATCH
  6
CONTINUOUS
 62
     2
100
AcDbTrace
 10
4143.400385818248
 20
4482.720198414585
 30
0.0
 11
4100.357875271391
 21
4997.402906056744
 31
0.0
 12
4135.236670206232
 22
4466.300537095388
 32
0.0
 13
4135.236670206232
 23
4466.300537095388
 33
0.0
210
0.0
220
0.0
230
1.0
  0
SOLID
  5
493
330
460
100
AcDbEntity
  8
HATCH
  6
CONTINUOUS
 62
     2
100
AcDbTrace
 10
4100.357875271391
 20
4997.402906056744
 30
0.0
 11
4143.400385818248
 21
4482.720198414585
 31
0.0
 12
4110.572544923526
 22
4982.592516241055
 32
0.0
 13
4110.572544923526
 23
4982.592516241055
 33
0.0
210
0.0
220
0.0
230
1.0
  0
SOLID
  5
494
330
460
100
AcDbEntity
  8
HATCH
  6
CONTINUOUS
 62
     2
100
AcDbTrace
 10
4150.972033265419
 20
4499.513862533629
 30
0.0
 11
4110.572544923526
 21
4982.592516241055
 31
0.0
 12
4143.400385818248
 22
4482.720198414585
 32
0.0
 13
4143.400385818248
 23
4482.720198414585
 33
0.0
210
0.0
220
0.0
230
1.0
  0
SOLID
  5
495
330
460
100
AcDbEntity
  8
HATCH
  6
CONTINUOUS
 62
     2
100
AcDbTrace
 10
4110.572544923526
 20
4982.592516241055
 30
0.0
 11
4150.972033265419
 21
4499.513862533629
 31
0.0
 12
4120.250759340559
 22
4967.309306426813
 32
0.0
 13
4120.250759340559
 23
4967.309306426813
 33
0.0
  0
SOLID
  5
496
330
460
100
AcDbEntity
  8
HATCH
  6
CONTINUOUS
 62
     2
100
AcDbTrace
 10
4157.938785584837
 20
4516.653079672171
 30
0.0
 11
4120.250759340559
 21
4967.309306426813
 31
0.0
 12
4150.972033265419
 22
4499.513862533629
 32
0.0
 13
4150.972033265419
 23
4499.513862533629
 33
0.0
210
0.0
220
0.0
230
1.0
  0
SOLID
  5
497
330
460
100
AcDbEntity
  8
HATCH
  6
CONTINUOUS
 62
     2
100
AcDbTrace
 10
4120.250759340559
 20
4967.309306426813
 30
0.0
 11
4157.938785584837
 21
4516.653079672171
 31
0.0
 12
4129.376122870395
 22
4951.579167566647
 32
0.0
 13
4129.376122870395
 23
4951.579167566647
 33
0.0
210
0.0
220
0.0
230
1.0
  0
SOLID
  5
498
330
460
100
AcDbEntity
  8
HATCH
  6
CONTINUOUS
 62
     2
100
AcDbTrace
 10
4164.288840553245
 20
4534.108814656025
 30
0.0
 11
4129.376122870395
 21
4951.579167566647
 31
0.0
 12
4157.938785584837
 22
4516.653079672171
 32
0.0
 13
4157.938785584837
 23
4516.653079672171
 33
0.0
210
0.0
220
0.0
230
1.0
  0
SOLID
  5
499
330
460
100
AcDbEntity
  8
HATCH
  6
CONTINUOUS
 62
     2
100
AcDbTrace
 10
4129.376122870395
 20
4951.579167566647
 30
0.0
 11
4164.288840553245
 21
4534.108814656025
 31
0.0
 12
4137.933176433572
 22
4935.428747745948
 32
0.0
 13
4137.933176433572
 23
4935.428747745948
 33
0.0
210
0.0
220
0.0
230
1.0
  0
SOLID
  5
49A
330
460
100
AcDbEntity
  8
HATCH
  6
CONTINUOUS
 62
     2
100
AcDbTrace
 10
4170.011440680926
 20
4551.851496105021
 30
0.0
 11
4137.933176433572
 21
4935.428747745948
 31
0.0
 12
4164.288840553245
 22
4534.108814656025
 32
0.0
 13
4164.288840553245
 23
4534.108814656025
 33
0.0
210
0.0
220
0.0
230
1.0
  0
SOLID
  5
49B
330
460
100
AcDbEntity
  8
HATCH
  6
CONTINUOUS
 62
     2
100
AcDbTrace
 10
4137.933176433572
 20
4935.428747745948
 30
0.0
 11
4170.011440680926
 21
4551.851496105021
 31
0.0
 12
4145.907423712161
 22
4918.885407038919
 32
0.0
 13
4145.907423712161
 23
4918.885407038919
 33
0.0
210
0.0
220
0.0
230
1.0
  0
SOLID
  5
49C
330
460
100
AcDbEntity
  8
HATCH
  6
CONTINUOUS
 62
     2
100
AcDbTrace
 10
4175.096891435737
 20
4569.851066529232
 30
0.0
 11
4145.907423712161
 21
4918.885407038919
 31
0.0
 12
4170.011440680926
 22
4551.851496105021
 32
0.0
 13
4170.011440680926
 23
4551.851496105021
 33
0.0
210
0.0
220
0.0
230
1.0
  0
SOLID
  5
49D
330
460
100
AcDbEntity
  8
HATCH
  6
CONTINUOUS
 62
     2
100
AcDbTrace
 10
4145.907423712161
 20
4918.885407038919
 30
0.0
 11
4175.096891435737
 21
4569.851066529232
 31
0.0
 12
4153.285355707652
 22
4901.977171158471
 32
0.0
 13
4153.285355707652
 23
4901.977171158471
 33
0.0
210
0.0
220
0.0
230
1.0
  0
SOLID
  5
49E
330
460
100
AcDbEntity
  8
HATCH
  6
CONTINUOUS
 62
     2
100
AcDbTrace
 10
4179.536577666392
 20
4588.077033248724
 30
0.0
 11
4153.285355707652
 21
4901.977171158471
 31
0.0
 12
4175.096891435737
 22
4569.851066529232
 32
0.0
 13
4175.096891435737
 23
4569.851066529232
 33
0.0
210
0.0
220
0.0
230
1.0
  0
SOLID
  5
49F
330
460
100
AcDbEntity
  8
HATCH
  6
CONTINUOUS
 62
     2
100
AcDbTrace
 10
4153.285355707652
 20
4901.977171158471
 30
0.0
 11
4179.536577666392
 21
4588.077033248724
 31
0.0
 12
4160.054473626263
 22
4884.73268397848
 32
0.0
 13
4160.054473626263
 23
4884.73268397848
 33
0.0
210
0.0
220
0.0
230
1.0
  0
SOLID
  5
4A0
330
460
100
AcDbEntity
  8
HATCH
  6
CONTINUOUS
 62
     2
100
AcDbTrace
 10
4183.32297819722
 20
4606.498520050531
 30
0.0
 11
4160.054473626263
 21
4884.73268397848
 31
0.0
 12
4179.536577666392
 22
4588.077033248724
 32
0.0
 13
4179.536577666392
 23
4588.077033248724
 33
0.0
210
0.0
220
0.0
230
1.0
  0
SOLID
  5
4A1
330
460
100
AcDbEntity
  8
HATCH
  6
CONTINUOUS
 62
     2
100
AcDbTrace
 10
4160.054473626263
 20
4884.73268397848
 30
0.0
 11
4183.32297819722
 21
4606.498520050531
 31
0.0
 12
4166.203310052865
 22
4867.181159008815
 32
0.0
 13
4166.203310052865
 23
4867.181159008815
 33
0.0
210
0.0
220
0.0
230
1.0
  0
SOLID
  5
4A2
330
460
100
AcDbEntity
  8
HATCH
  6
CONTINUOUS
 62
     2
100
AcDbTrace
 10
4186.449678569608
 20
4625.084319495377
 30
0.0
 11
4166.203310052865
 21
4867.181159008815
 31
0.0
 12
4183.32297819722
 22
4606.498520050531
 32
0.0
 13
4183.32297819722
 23
4606.498520050531
 33
0.0
210
0.0
220
0.0
230
1.0
  0
SOLID
  5
4A3
330
460
100
AcDbEntity
  8
HATCH
  6
CONTINUOUS
 62
     2
100
AcDbTrace
 10
4166.203310052865
 20
4867.181159008815
 30
0.0
 11
4186.449678569608
 21
4625.084319495377
 31
0.0
 12
4171.721448377691
 22
4849.352329905372
 32
0.0
 13
4171.721448377691
 23
4849.352329905372
 33
0.0
210
0.0
220
0.0
230
1.0
  0
SOLID
  5
4A4
330
460
100
AcDbEntity
  8
HATCH
  6
CONTINUOUS
 62
     2
100
AcDbTrace
 10
4188.911381908603
 20
4643.802945785519
 30
0.0
 11
4171.721448377691
 21
4849.352329905372
 31
0.0
 12
4186.449678569608
 22
4625.084319495377
 32
0.0
 13
4186.449678569608
 23
4625.084319495377
 33
0.0
  0
SOLID
  5
4A5
330
460
100
AcDbEntity
  8
HATCH
  6
CONTINUOUS
 62
     2
100
AcDbTrace
 10
4171.721448377691
 20
4849.352329905372
 30
0.0
 11
4188.911381908603
 21
4643.802945785519
 31
0.0
 12
4176.599540442875
 22
4831.27640009894
 32
0.0
 13
4176.599540442875
 23
4831.27640009894
 33
0.0
210
0.0
220
0.0
230
1.0
  0
SOLID
  5
4A6
330
460
100
AcDbEntity
  8
HATCH
  6
CONTINUOUS
 62
     2
100
AcDbTrace
 10
4190.703917896235
 20
4662.62268810415
 30
0.0
 11
4176.599540442875
 21
4831.27640009894
 31
0.0
 12
4188.911381908603
 22
4643.802945785519
 32
0.0
 13
4188.911381908603
 23
4643.802945785519
 33
0.0
210
0.0
220
0.0
230
1.0
  0
SOLID
  5
4A7
330
460
100
AcDbEntity
  8
HATCH
  6
CONTINUOUS
 62
     2
100
AcDbTrace
 10
4176.599540442875
 20
4831.27640009894
 30
0.0
 11
4190.703917896235
 21
4662.62268810415
 31
0.0
 12
4180.829322378976
 22
4812.983991628221
 32
0.0
 13
4180.829322378976
 23
4812.983991628221
 33
0.0
210
0.0
220
0.0
230
1.0
  0
SOLID
  5
4A8
330
460
100
AcDbEntity
  8
HATCH
  6
CONTINUOUS
 62
     2
100
AcDbTrace
 10
4191.82424983636
 20
4681.511664336004
 30
0.0
 11
4180.829322378976
 21
4812.983991628221
 31
0.0
 12
4190.703917896235
 22
4662.62268810415
 32
0.0
 13
4190.703917896235
 23
4662.62268810415
 33
0.0
  0
SOLID
  5
4A9
330
460
100
AcDbEntity
  8
HATCH
  6
CONTINUOUS
 62
     2
100
AcDbTrace
 10
4180.829322378976
 20
4812.983991628221
 30
0.0
 11
4191.82424983636
 21
4681.511664336004
 31
0.0
 12
4184.403628604608
 22
4794.5060932637
 32
0.0
 13
4184.403628604608
 23
4794.5060932637
 33
0.0
210
0.0
220
0.0
230
1.0
  0
SOLID
  5
4AA
330
460
100
AcDbEntity
  8
HATCH
  6
CONTINUOUS
 62
     2
100
AcDbTrace
 10
4192.270479799054
 20
4700.43787507815
 30
0.0
 11
4184.403628604608
 21
4794.5060932637
 31
0.0
 12
4191.82424983636
 22
4681.511664336004
 32
0.0
 13
4191.82424983636
 23
4681.511664336004
 33
0.0
210
0.0
220
0.0
230
1.0
  0
SOLID
  5
4AB
330
460
100
AcDbEntity
  8
HATCH
  6
CONTINUOUS
 62
     2
100
AcDbTrace
 10
4184.403628604608
 20
4794.5060932637
 30
0.0
 11
4192.270479799054
 21
4700.43787507815
 31
0.0
 12
4187.316403965496
 22
4775.874008010256
 32
0.0
 13
4187.316403965496
 23
4775.874008010256
 33
0.0
210
0.0
220
0.0
230
1.0
  0
SOLID
  5
4AC
330
460
100
AcDbEntity
  8
HATCH
  6
CONTINUOUS
 62
     2
100
AcDbTrace
 10
4192.041851835863
 20
4719.369257849488
 30
0.0
 11
4187.316403965496
 21
4775.874008010256
 31
0.0
 12
4192.270479799054
 22
4700.43787507815
 32
0.0
 13
4192.270479799054
 23
4700.43787507815
 33
0.0
210
0.0
220
0.0
230
1.0
  0
SOLID
  5
4AD
330
460
100
AcDbEntity
  8
HATCH
  6
CONTINUOUS
 62
     2
100
AcDbTrace
 10
4187.316403965496
 20
4775.874008010256
 30
0.0
 11
4192.041851835863
 21
4719.369257849488
 31
0.0
 12
4189.562713992392
 22
4757.11930007741
 32
0.0
 13
4189.562713992392
 23
4757.11930007741
 33
0.0
  0
SOLID
  5
4AE
330
460
100
AcDbEntity
  8
HATCH
  6
CONTINUOUS
 62
     2
100
AcDbTrace
 10
4191.138753260439
 20
4738.273741407091
 30
0.0
 11
4189.562713992392
 21
4757.11930007741
 31
0.0
 12
4192.041851835863
 22
4719.369257849488
 32
0.0
 13
4192.041851835863
 23
4719.369257849488
 33
0.0
210
0.0
220
0.0
230
1.0
  0
SOLID
  5
4AF
330
460
100
AcDbEntity
  8
HATCH
  6
CONTINUOUS
 62
     2
100
AcDbTrace
 10
3810.300748071663
 20
4243.880518043506
 30
0.0
 11
3793.907568158925
 21
4243.490880056589
 31
0.0
 12
4158.907568158948
 22
4243.490880056611
 32
0.0
 13
4158.907568158948
 23
4243.490880056611
 33
0.0
210
0.0
220
0.0
230
1.0
  0
SOLID
  5
4B0
330
460
100
AcDbEntity
  8
HATCH
  6
CONTINUOUS
 62
     2
100
AcDbTrace
 10
4351.425014128378
 20
4243.883831198405
 30
0.0
 11
4368.818756257531
 21
4243.49088005661
 31
0.0
 12
5381.150754592581
 22
4243.490880056583
 32
0.0
 13
5381.150754592581
 23
4243.490880056583
 33
0.0
210
0.0
220
0.0
230
1.0
  0
SOLID
  5
4B1
330
460
100
AcDbEntity
  8
HATCH
  6
CONTINUOUS
 62
     2
100
AcDbTrace
 10
5390.655498669808
 20
4243.883831198423
 30
0.0
 11
4351.425014128378
 21
4243.883831198405
 31
0.0
 12
5381.150754592581
 22
4243.490880056583
 32
0.0
 13
5381.150754592581
 23
4243.490880056583
 33
0.0
210
0.0
220
0.0
230
1.0
  0
SOLID
  5
4B2
330
460
100
AcDbEntity
  8
HATCH
  6
CONTINUOUS
 62
     2
100
AcDbTrace
 10
4175.370267813644
 20
4243.883831198454
 30
0.0
 11
3810.300748071663
 21
4243.880518043506
 31
0.0
 12
4158.907568158948
 22
4243.490880056611
 32
0.0
 13
4158.907568158948
 23
4243.490880056611
 33
0.0
210
0.0
220
0.0
230
1.0
  0
SOLID
  5
4B3
330
460
100
AcDbEntity
  8
HATCH
  6
CONTINUOUS
 62
     2
100
AcDbTrace
 10
3826.666156655607
 20
4245.048771927034
 30
0.0
 11
3810.300748071663
 21
4243.880518043506
 31
0.0
 12
4175.370267813644
 22
4243.883831198454
 32
0.0
 13
4175.370267813644
 23
4243.883831198454
 33
0.0
210
0.0
220
0.0
230
1.0
  0
SOLID
  5
4B4
330
460
100
AcDbEntity
  8
HATCH
  6
CONTINUOUS
 62
     2
100
AcDbTrace
 10
4360.913519509787
 20
4245.062013273494
 30
0.0
 11
4351.425014128378
 21
4243.883831198405
 31
0.0
 12
5390.655498669808
 22
4243.883831198423
 32
0.0
 13
5390.655498669808
 23
4243.883831198423
 33
0.0
210
0.0
220
0.0
230
1.0
  0
SOLID
  5
4B5
330
460
100
AcDbEntity
  8
HATCH
  6
CONTINUOUS
 62
     2
100
AcDbTrace
 10
5400.144004051219
 20
4245.062013273513
 30
0.0
 11
4360.913519509787
 21
4245.062013273494
 31
0.0
 12
5390.655498669808
 22
4243.883831198423
 32
0.0
 13
5390.655498669808
 23
4243.883831198423
 33
0.0
210
0.0
220
0.0
230
1.0
  0
SOLID
  5
4B6
330
460
100
AcDbEntity
  8
HATCH
  6
CONTINUOUS
 62
     2
100
AcDbTrace
 10
4191.804841222135
 20
4245.062013273545
 30
0.0
 11
3826.666156655607
 21
4245.048771927034
 31
0.0
 12
4175.370267813644
 22
4243.883831198454
 32
0.0
 13
4175.370267813644
 23
4243.883831198454
 33
0.0
210
0.0
220
0.0
230
1.0
  0
SOLID
  5
4B7
330
460
100
AcDbEntity
  8
HATCH
  6
CONTINUOUS
 62
     2
100
AcDbTrace
 10
3842.976069628785
 20
4246.993662593731
 30
0.0
 11
3826.666156655607
 21
4245.048771927034
 31
0.0
 12
4191.804841222135
 22
4245.062013273545
 32
0.0
 13
4191.804841222135
 23
4245.062013273545
 33
0.0
  0
SOLID
  5
4B8
330
460
100
AcDbEntity
  8
HATCH
  6
CONTINUOUS
 62
     2
100
AcDbTrace
 10
4370.369575243099
 20
4247.023413377521
 30
0.0
 11
4360.913519509787
 21
4245.062013273494
 31
0.0
 12
5400.144004051219
 22
4245.062013273513
 32
0.0
 13
5400.144004051219
 23
4245.062013273513
 33
0.0
210
0.0
220
0.0
230
1.0
  0
SOLID
  5
4B9
330
460
100
AcDbEntity
  8
HATCH
  6
CONTINUOUS
 62
     2
100
AcDbTrace
 10
5409.600059784533
 20
4247.02341337754
 30
0.0
 11
4370.369575243099
 21
4247.023413377521
 31
0.0
 12
5400.144004051219
 22
4245.062013273513
 32
0.0
 13
5400.144004051219
 23
4245.062013273513
 33
0.0
  0
SOLID
  5
4BA
330
460
100
AcDbEntity
  8
HATCH
  6
CONTINUOUS
 62
     2
100
AcDbTrace
 10
4208.183210191435
 20
4247.023413377574
 30
0.0
 11
3842.976069628785
 21
4246.993662593731
 31
0.0
 12
4191.804841222135
 22
4245.062013273545
 32
0.0
 13
4191.804841222135
 23
4245.062013273545
 33
0.0
210
0.0
220
0.0
230
1.0
  0
SOLID
  5
4BB
330
460
100
AcDbEntity
  8
HATCH
  6
CONTINUOUS
 62
     2
100
AcDbTrace
 10
3859.20285672312
 20
4249.711895246711
 30
0.0
 11
3842.976069628785
 21
4246.993662593731
 31
0.0
 12
4208.183210191435
 22
4247.023413377574
 32
0.0
 13
4208.183210191435
 23
4247.023413377574
 33
0.0
210
0.0
220
0.0
230
1.0
  0
SOLID
  5
4BC
330
460
100
AcDbEntity
  8
HATCH
  6
CONTINUOUS
 62
     2
100
AcDbTrace
 10
4379.777025815718
 20
4249.764680491308
 30
0.0
 11
4370.369575243099
 21
4247.023413377521
 31
0.0
 12
5409.600059784533
 22
4247.02341337754
 32
0.0
 13
5409.600059784533
 23
4247.02341337754
 33
0.0
210
0.0
220
0.0
230
1.0
  0
SOLID
  5
4BD
330
460
100
AcDbEntity
  8
HATCH
  6
CONTINUOUS
 62
     2
100
AcDbTrace
 10
5419.007510357153
 20
4249.764680491327
 30
0.0
 11
4379.777025815718
 21
4249.764680491308
 31
0.0
 12
5409.600059784533
 22
4247.02341337754
 32
0.0
 13
5409.600059784533
 23
4247.02341337754
 33
0.0
  0
SOLID
  5
4BE
330
460
100
AcDbEntity
  8
HATCH
  6
CONTINUOUS
 62
     2
100
AcDbTrace
 10
4224.477392552905
 20
4249.764680491363
 30
0.0
 11
3859.20285672312
 21
4249.711895246711
 31
0.0
 12
4208.183210191435
 22
4247.023413377574
 32
0.0
 13
4208.183210191435
 23
4247.023413377574
 33
0.0
210
0.0
220
0.0
230
1.0
  0
SOLID
  5
4BF
330
460
100
AcDbEntity
  8
HATCH
  6
CONTINUOUS
 62
     2
100
AcDbTrace
 10
3875.319028492277
 20
4253.19886498728
 30
0.0
 11
3859.20285672312
 21
4249.711895246711
 31
0.0
 12
4224.477392552905
 22
4249.764680491363
 32
0.0
 13
4224.477392552905
 23
4249.764680491363
 33
0.0
210
0.0
220
0.0
230
1.0
  0
SOLID
  5
4C0
330
460
100
AcDbEntity
  8
HATCH
  6
CONTINUOUS
 62
     2
100
AcDbTrace
 10
4389.119798756144
 20
4253.281131205977
 30
0.0
 11
4379.777025815718
 21
4249.764680491308
 31
0.0
 12
5419.007510357153
 22
4249.764680491327
 32
0.0
 13
5419.007510357153
 23
4249.764680491327
 33
0.0
210
0.0
220
0.0
230
1.0
  0
SOLID
  5
4C1
330
460
100
AcDbEntity
  8
HATCH
  6
CONTINUOUS
 62
     2
100
AcDbTrace
 10
5428.35028329758
 20
4253.281131205995
 30
0.0
 11
4389.119798756144
 21
4253.281131205977
 31
0.0
 12
5419.007510357153
 22
4249.764680491327
 32
0.0
 13
5419.007510357153
 23
4249.764680491327
 33
0.0
210
0.0
220
0.0
230
1.0
  0
SOLID
  5
4C2
330
460
100
AcDbEntity
  8
HATCH
  6
CONTINUOUS
 62
     2
100
AcDbTrace
 10
4240.659549969302
 20
4253.281131206033
 30
0.0
 11
3875.319028492277
 21
4253.19886498728
 31
0.0
 12
4224.477392552905
 22
4249.764680491363
 32
0.0
 13
4224.477392552905
 23
4249.764680491363
 33
0.0
210
0.0
220
0.0
230
1.0
  0
SOLID
  5
4C3
330
460
100
AcDbEntity
  8
HATCH
  6
CONTINUOUS
 62
     2
100
AcDbTrace
 10
3891.297282880929
 20
4257.448664616005
 30
0.0
 11
3875.319028492277
 21
4253.19886498728
 31
0.0
 12
4240.659549969302
 22
4253.281131206033
 32
0.0
 13
4240.659549969302
 23
4253.281131206033
 33
0.0
210
0.0
220
0.0
230
1.0
  0
SOLID
  5
4C4
330
460
100
AcDbEntity
  8
HATCH
  6
CONTINUOUS
 62
     2
100
AcDbTrace
 10
4398.381932093531
 20
4257.566757724467
 30
0.0
 11
4389.119798756144
 21
4253.281131205977
 31
0.0
 12
5428.35028329758
 22
4253.281131205995
 32
0.0
 13
5428.35028329758
 23
4253.281131205995
 33
0.0
210
0.0
220
0.0
230
1.0
  0
SOLID
  5
4C5
330
460
100
AcDbEntity
  8
HATCH
  6
CONTINUOUS
 62
     2
100
AcDbTrace
 10
5437.612416634968
 20
4257.566757724485
 30
0.0
 11
4398.381932093531
 21
4257.566757724467
 31
0.0
 12
5428.35028329758
 22
4253.281131205995
 32
0.0
 13
5428.35028329758
 23
4253.281131205995
 33
0.0
210
0.0
220
0.0
230
1.0
  0
SOLID
  5
4C6
330
460
100
AcDbEntity
  8
HATCH
  6
CONTINUOUS
 62
     2
100
AcDbTrace
 10
4256.702035496135
 20
4257.566757724527
 30
0.0
 11
3891.297282880929
 21
4257.448664616005
 31
0.0
 12
4240.659549969302
 22
4253.281131206033
 32
0.0
 13
4240.659549969302
 23
4253.281131206033
 33
0.0
210
0.0
220
0.0
230
1.0
  0
SOLID
  5
4C7
330
460
100
AcDbEntity
  8
HATCH
  6
CONTINUOUS
 62
     2
100
AcDbTrace
 10
3907.110551476577
 20
4262.454094639962
 30
0.0
 11
3891.297282880929
 21
4257.448664616005
 31
0.0
 12
4256.702035496135
 22
4257.566757724527
 32
0.0
 13
4256.702035496135
 23
4257.566757724527
 33
0.0
210
0.0
220
0.0
230
1.0
  0
SOLID
  5
4C8
330
460
100
AcDbEntity
  8
HATCH
  6
CONTINUOUS
 62
     2
100
AcDbTrace
 10
4407.547601628441
 20
4262.614238125762
 30
0.0
 11
4398.381932093531
 21
4257.566757724467
 31
0.0
 12
5437.612416634968
 22
4257.566757724485
 32
0.0
 13
5437.612416634968
 23
4257.566757724485
 33
0.0
210
0.0
220
0.0
230
1.0
  0
SOLID
  5
4C9
330
460
100
AcDbEntity
  8
HATCH
  6
CONTINUOUS
 62
     2
100
AcDbTrace
 10
5446.778086169878
 20
4262.614238125781
 30
0.0
 11
4407.547601628441
 21
4262.614238125762
 31
0.0
 12
5437.612416634968
 22
4257.566757724485
 32
0.0
 13
5437.612416634968
 23
4257.566757724485
 33
0.0
210
0.0
220
0.0
230
1.0
  0
SOLID
  5
4CA
330
460
100
AcDbEntity
  8
HATCH
  6
CONTINUOUS
 62
     2
100
AcDbTrace
 10
4272.577440815984
 20
4262.614238125823
 30
0.0
 11
3907.110551476577
 21
4262.454094639962
 31
0.0
 12
4256.702035496135
 22
4257.566757724527
 32
0.0
 13
4256.702035496135
 23
4257.566757724527
 33
0.0
210
0.0
220
0.0
230
1.0
  0
SOLID
  5
4CB
330
460
100
AcDbEntity
  8
HATCH
  6
CONTINUOUS
 62
     2
100
AcDbTrace
 10
3922.732045365563
 20
4268.20667546925
 30
0.0
 11
3907.110551476577
 21
4262.454094639962
 31
0.0
 12
4272.577440815984
 22
4262.614238125823
 32
0.0
 13
4272.577440815984
 23
4262.614238125823
 33
0.0
210
0.0
220
0.0
230
1.0
  0
SOLID
  5
4CC
330
460
100
AcDbEntity
  8
HATCH
  6
CONTINUOUS
 62
     2
100
AcDbTrace
 10
4416.601147968224
 20
4268.414948874266
 30
0.0
 11
4407.547601628441
 21
4262.614238125762
 31
0.0
 12
5446.778086169878
 22
4262.614238125781
 32
0.0
 13
5446.778086169878
 23
4262.614238125781
 33
0.0
210
0.0
220
0.0
230
1.0
  0
SOLID
  5
4CD
330
460
100
AcDbEntity
  8
HATCH
  6
CONTINUOUS
 62
     2
100
AcDbTrace
 10
5455.831632509662
 20
4268.414948874285
 30
0.0
 11
4416.601147968224
 21
4268.414948874266
 31
0.0
 12
5446.778086169878
 22
4262.614238125781
 32
0.0
 13
5446.778086169878
 23
4262.614238125781
 33
0.0
210
0.0
220
0.0
230
1.0
  0
SOLID
  5
4CE
330
460
100
AcDbEntity
  8
HATCH
  6
CONTINUOUS
 62
     2
100
AcDbTrace
 10
4288.258643065166
 20
4268.414948874329
 30
0.0
 11
3922.732045365563
 21
4268.20667546925
 31
0.0
 12
4272.577440815984
 22
4262.614238125823
 32
0.0
 13
4272.577440815984
 23
4262.614238125823
 33
0.0
210
0.0
220
0.0
230
1.0
  0
SOLID
  5
4CF
330
460
100
AcDbEntity
  8
HATCH
  6
CONTINUOUS
 62
     2
100
AcDbTrace
 10
3938.135300515572
 20
4274.696661782064
 30
0.0
 11
3922.732045365563
 21
4268.20667546925
 31
0.0
 12
4288.258643065166
 22
4268.414948874329
 32
0.0
 13
4288.258643065166
 23
4268.414948874329
 33
0.0
210
0.0
220
0.0
230
1.0
  0
SOLID
  5
4D0
330
460
100
AcDbEntity
  8
HATCH
  6
CONTINUOUS
 62
     2
100
AcDbTrace
 10
4425.527103280827
 20
4274.958979552969
 30
0.0
 11
4416.601147968224
 21
4268.414948874266
 31
0.0
 12
5455.831632509662
 22
4268.414948874285
 32
0.0
 13
5455.831632509662
 23
4268.414948874285
 33
0.0
210
0.0
220
0.0
230
1.0
  0
SOLID
  5
4D1
330
460
100
AcDbEntity
  8
HATCH
  6
CONTINUOUS
 62
     2
100
AcDbTrace
 10
5464.757587822266
 20
4274.958979552986
 30
0.0
 11
4425.527103280827
 21
4274.958979552969
 31
0.0
 12
5455.831632509662
 22
4268.414948874285
 32
0.0
 13
5455.831632509662
 23
4268.414948874285
 33
0.0
210
0.0
220
0.0
230
1.0
  0
SOLID
  5
4D2
330
460
100
AcDbEntity
  8
HATCH
  6
CONTINUOUS
 62
     2
100
AcDbTrace
 10
4303.718851172685
 20
4274.958979553034
 30
0.0
 11
3938.135300515572
 21
4274.696661782064
 31
0.0
 12
4288.258643065166
 22
4268.414948874329
 32
0.0
 13
4288.258643065166
 23
4268.414948874329
 33
0.0
210
0.0
220
0.0
230
1.0
  0
SOLID
  5
4D3
330
460
100
AcDbEntity
  8
HATCH
  6
CONTINUOUS
 62
     2
100
AcDbTrace
 10
3953.294222607787
 20
4281.913059034049
 30
0.0
 11
3938.135300515572
 21
4274.696661782064
 31
0.0
 12
4303.718851172685
 22
4274.958979553034
 32
0.0
 13
4303.718851172685
 23
4274.958979553034
 33
0.0
210
0.0
220
0.0
230
1.0
  0
SOLID
  5
4D4
330
460
100
AcDbEntity
  8
HATCH
  6
CONTINUOUS
 62
     2
100
AcDbTrace
 10
4434.310217721328
 20
4282.23514979523
 30
0.0
 11
4425.527103280827
 21
4274.958979552969
 31
0.0
 12
5464.757587822266
 22
4274.958979552986
 32
0.0
 13
5464.757587822266
 23
4274.958979552986
 33
0.0
  0
SOLID
  5
4D5
330
460
100
AcDbEntity
  8
HATCH
  6
CONTINUOUS
 62
     2
100
AcDbTrace
 10
5473.540702262766
 20
4282.235149795249
 30
0.0
 11
4434.310217721328
 21
4282.23514979523
 31
0.0
 12
5464.757587822266
 22
4274.958979552986
 32
0.0
 13
5464.757587822266
 23
4274.958979552986
 33
0.0
210
0.0
220
0.0
230
1.0
  0
SOLID
  5
4D6
330
460
100
AcDbEntity
  8
HATCH
  6
CONTINUOUS
 62
     2
100
AcDbTrace
 10
4318.931651632325
 20
4282.235149795296
 30
0.0
 11
3953.294222607787
 21
4281.913059034049
 31
0.0
 12
4303.718851172685
 22
4274.958979553034
 32
0.0
 13
4303.718851172685
 23
4274.958979553034
 33
0.0
210
0.0
220
0.0
230
1.0
  0
SOLID
  5
4D7
330
460
100
AcDbEntity
  8
HATCH
  6
CONTINUOUS
 62
     2
100
AcDbTrace
 10
3968.183131242695
 20
4289.843642083912
 30
0.0
 11
3953.294222607787
 21
4281.913059034049
 31
0.0
 12
4318.931651632325
 22
4282.235149795296
 32
0.0
 13
4318.931651632325
 23
4282.235149795296
 33
0.0
210
0.0
220
0.0
230
1.0
  0
SOLID
  5
4D8
330
460
100
AcDbEntity
  8
HATCH
  6
CONTINUOUS
 62
     2
100
AcDbTrace
 10
4442.935485486041
 20
4290.231028386245
 30
0.0
 11
4434.310217721328
 21
4282.23514979523
 31
0.0
 12
5473.540702262766
 22
4282.235149795249
 32
0.0
 13
5473.540702262766
 23
4282.235149795249
 33
0.0
210
0.0
220
0.0
230
1.0
  0
SOLID
  5
4D9
330
460
100
AcDbEntity
  8
HATCH
  6
CONTINUOUS
 62
     2
100
AcDbTrace
 10
5482.165970027478
 20
4290.231028386265
 30
0.0
 11
4442.935485486041
 21
4290.231028386245
 31
0.0
 12
5473.540702262766
 22
4282.235149795249
 32
0.0
 13
5473.540702262766
 23
4282.235149795249
 33
0.0
210
0.0
220
0.0
230
1.0
  0
SOLID
  5
4DA
330
460
100
AcDbEntity
  8
HATCH
  6
CONTINUOUS
 62
     2
100
AcDbTrace
 10
4333.871053629692
 20
4290.231028386314
 30
0.0
 11
3968.183131242695
 21
4289.843642083912
 31
0.0
 12
4318.931651632325
 22
4282.235149795296
 32
0.0
 13
4318.931651632325
 23
4282.235149795296
 33
0.0
  0
SOLID
  5
4DB
330
460
100
AcDbEntity
  8
HATCH
  6
CONTINUOUS
 62
     2
100
AcDbTrace
 10
3982.776803444696
 20
4298.474975903761
 30
0.0
 11
3968.183131242695
 21
4289.843642083912
 31
0.0
 12
4333.871053629692
 22
4290.231028386314
 32
0.0
 13
4333.871053629692
 23
4290.231028386314
 33
0.0
210
0.0
220
0.0
230
1.0
  0
SOLID
  5
4DC
330
460
100
AcDbEntity
  8
HATCH
  6
CONTINUOUS
 62
     2
100
AcDbTrace
 10
4451.388170449672
 20
4298.932954501569
 30
0.0
 11
4442.935485486041
 21
4290.231028386245
 31
0.0
 12
5482.165970027478
 22
4290.231028386265
 32
0.0
 13
5482.165970027478
 23
4290.231028386265
 33
0.0
210
0.0
220
0.0
230
1.0
  0
SOLID
  5
4DD
330
460
100
AcDbEntity
  8
HATCH
  6
CONTINUOUS
 62
     2
100
AcDbTrace
 10
5490.618654991109
 20
4298.93295450159
 30
0.0
 11
4451.388170449672
 21
4298.932954501569
 31
0.0
 12
5482.165970027478
 22
4290.231028386265
 32
0.0
 13
5482.165970027478
 23
4290.231028386265
 33
0.0
210
0.0
220
0.0
230
1.0
  0
SOLID
  5
4DE
330
460
100
AcDbEntity
  8
HATCH
  6
CONTINUOUS
 62
     2
100
AcDbTrace
 10
4348.511533447074
 20
4298.93295450164
 30
0.0
 11
3982.776803444696
 21
4298.474975903761
 31
0.0
 12
4333.871053629692
 22
4290.231028386314
 32
0.0
 13
4333.871053629692
 23
4290.231028386314
 33
0.0
210
0.0
220
0.0
230
1.0
  0
SOLID
  5
4DF
330
460
100
AcDbEntity
  8
HATCH
  6
CONTINUOUS
 62
     2
100
AcDbTrace
 10
3997.050516391796
 20
4307.7924383391
 30
0.0
 11
3982.776803444696
 21
4298.474975903761
 31
0.0
 12
4348.511533447074
 22
4298.93295450164
 32
0.0
 13
4348.511533447074
 23
4298.93295450164
 33
0.0
210
0.0
220
0.0
230
1.0
  0
SOLID
  5
4E0
330
460
100
AcDbEntity
  8
HATCH
  6
CONTINUOUS
 62
     2
100
AcDbTrace
 10
4459.653831341753
 20
4308.326061046408
 30
0.0
 11
4451.388170449672
 21
4298.932954501569
 31
0.0
 12
5490.618654991109
 22
4298.93295450159
 32
0.0
 13
5490.618654991109
 23
4298.93295450159
 33
0.0
210
0.0
220
0.0
230
1.0
  0
SOLID
  5
4E1
330
460
100
AcDbEntity
  8
HATCH
  6
CONTINUOUS
 62
     2
100
AcDbTrace
 10
5498.884315883191
 20
4308.326061046426
 30
0.0
 11
4459.653831341753
 21
4308.326061046408
 31
0.0
 12
5490.618654991109
 22
4298.93295450159
 32
0.0
 13
5490.618654991109
 23
4298.93295450159
 33
0.0
  0
SOLID
  5
4E2
330
460
100
AcDbEntity
  8
HATCH
  6
CONTINUOUS
 62
     2
100
AcDbTrace
 10
4362.828078070291
 20
4308.326061046478
 30
0.0
 11
3997.050516391796
 21
4307.7924383391
 31
0.0
 12
4348.511533447074
 22
4298.93295450164
 32
0.0
 13
4348.511533447074
 23
4298.93295450164
 33
0.0
210
0.0
220
0.0
230
1.0
  0
SOLID
  5
4E3
330
460
100
AcDbEntity
  8
HATCH
  6
CONTINUOUS
 62
     2
100
AcDbTrace
 10
4010.980089298003
 20
4317.780244879902
 30
0.0
 11
3997.050516391796
 21
4307.7924383391
 31
0.0
 12
4362.828078070291
 22
4308.326061046478
 32
0.0
 13
4362.828078070291
 23
4308.326061046478
 33
0.0
210
0.0
220
0.0
230
1.0
  0
SOLID
  5
4E4
330
460
100
AcDbEntity
  8
HATCH
  6
CONTINUOUS
 62
     2
100
AcDbTrace
 10
4467.718346419302
 20
4318.394300055791
 30
0.0
 11
4459.653831341753
 21
4308.326061046408
 31
0.0
 12
5498.884315883191
 22
4308.326061046426
 32
0.0
 13
5498.884315883191
 23
4308.326061046426
 33
0.0
210
0.0
220
0.0
230
1.0
  0
SOLID
  5
4E5
330
460
100
AcDbEntity
  8
HATCH
  6
CONTINUOUS
 62
     2
100
AcDbTrace
 10
5506.948830960741
 20
4318.39430005581
 30
0.0
 11
4467.718346419302
 21
4318.394300055791
 31
0.0
 12
5498.884315883191
 22
4308.326061046426
 32
0.0
 13
5498.884315883191
 23
4308.326061046426
 33
0.0
210
0.0
220
0.0
230
1.0
  0
SOLID
  5
4E6
330
460
100
AcDbEntity
  8
HATCH
  6
CONTINUOUS
 62
     2
100
AcDbTrace
 10
4376.796227923012
 20
4318.394300055863
 30
0.0
 11
4010.980089298003
 21
4317.780244879902
 31
0.0
 12
4362.828078070291
 22
4308.326061046478
 32
0.0
 13
4362.828078070291
 23
4308.326061046478
 33
0.0
210
0.0
220
0.0
230
1.0
  0
SOLID
  5
4E7
330
460
100
AcDbEntity
  8
HATCH
  6
CONTINUOUS
 62
     2
100
AcDbTrace
 10
4024.541924377465
 20
4328.4214754008
 30
0.0
 11
4010.980089298003
 21
4317.780244879902
 31
0.0
 12
4376.796227923012
 22
4318.394300055863
 32
0.0
 13
4376.796227923012
 23
4318.394300055863
 33
0.0
210
0.0
220
0.0
230
1.0
  0
SOLID
  5
4E8
330
460
100
AcDbEntity
  8
HATCH
  6
CONTINUOUS
 62
     2
100
AcDbTrace
 10
4475.567937593591
 20
4329.120470112263
 30
0.0
 11
4467.718346419302
 21
4318.394300055791
 31
0.0
 12
5506.948830960741
 22
4318.39430005581
 32
0.0
 13
5506.948830960741
 23
4318.39430005581
 33
0.0
210
0.0
220
0.0
230
1.0
  0
SOLID
  5
4E9
330
460
100
AcDbEntity
  8
HATCH
  6
CONTINUOUS
 62
     2
100
AcDbTrace
 10
5514.798422135027
 20
4329.120470112284
 30
0.0
 11
4475.567937593591
 21
4329.120470112263
 31
0.0
 12
5506.948830960741
 22
4318.39430005581
 32
0.0
 13
5506.948830960741
 23
4318.39430005581
 33
0.0
210
0.0
220
0.0
230
1.0
  0
SOLID
  5
4EA
330
460
100
AcDbEntity
  8
HATCH
  6
CONTINUOUS
 62
     2
100
AcDbTrace
 10
4390.392118655522
 20
4329.120470112338
 30
0.0
 11
4024.541924377465
 21
4328.4214754008
 31
0.0
 12
4376.796227923012
 22
4318.394300055863
 32
0.0
 13
4376.796227923012
 23
4318.394300055863
 33
0.0
  0
SOLID
  5
4EB
330
460
100
AcDbEntity
  8
HATCH
  6
CONTINUOUS
 62
     2
100
AcDbTrace
 10
4037.713046820968
 20
4339.698102825106
 30
0.0
 11
4024.541924377465
 21
4328.4214754008
 31
0.0
 12
4390.392118655522
 22
4329.120470112338
 32
0.0
 13
4390.392118655522
 23
4329.120470112338
 33
0.0
  0
SOLID
  5
4EC
330
460
100
AcDbEntity
  8
HATCH
  6
CONTINUOUS
 62
     2
100
AcDbTrace
 10
4483.189193969769
 20
4340.486245734211
 30
0.0
 11
4475.567937593591
 21
4329.120470112263
 31
0.0
 12
5514.798422135027
 22
4329.120470112284
 32
0.0
 13
5514.798422135027
 23
4329.120470112284
 33
0.0
210
0.0
220
0.0
230
1.0
  0
SOLID
  5
4ED
330
460
100
AcDbEntity
  8
HATCH
  6
CONTINUOUS
 62
     2
100
AcDbTrace
 10
5522.419678511203
 20
4340.486245734232
 30
0.0
 11
4483.189193969769
 21
4340.486245734211
 31
0.0
 12
5514.798422135027
 22
4329.120470112284
 32
0.0
 13
5514.798422135027
 23
4329.120470112284
 33
0.0
210
0.0
220
0.0
230
1.0
  0
SOLID
  5
4EE
330
460
100
AcDbEntity
  8
HATCH
  6
CONTINUOUS
 62
     2
100
AcDbTrace
 10
4403.592521916568
 20
4340.486245734287
 30
0.0
 11
4037.713046820968
 21
4339.698102825106
 31
0.0
 12
4390.392118655522
 22
4329.120470112338
 32
0.0
 13
4390.392118655522
 23
4329.120470112338
 33
0.0
210
0.0
220
0.0
230
1.0
  0
SOLID
  5
4EF
330
460
100
AcDbEntity
  8
HATCH
  6
CONTINUOUS
 62
     2
100
AcDbTrace
 10
4050.471143717059
 20
4351.591023664084
 30
0.0
 11
4037.713046820968
 21
4339.698102825106
 31
0.0
 12
4403.592521916568
 22
4340.486245734287
 32
0.0
 13
4403.592521916568
 23
4340.486245734287
 33
0.0
210
0.0
220
0.0
230
1.0
  0
SOLID
  5
4F0
330
460
100
AcDbEntity
  8
HATCH
  6
CONTINUOUS
 62
     2
100
AcDbTrace
 10
4490.569094759162
 20
4352.472208684641
 30
0.0
 11
4483.189193969769
 21
4340.486245734211
 31
0.0
 12
5522.419678511203
 22
4340.486245734232
 32
0.0
 13
5522.419678511203
 23
4340.486245734232
 33
0.0
210
0.0
220
0.0
230
1.0
  0
SOLID
  5
4F1
330
460
100
AcDbEntity
  8
HATCH
  6
CONTINUOUS
 62
     2
100
AcDbTrace
 10
5529.799579300595
 20
4352.472208684662
 30
0.0
 11
4490.569094759162
 21
4352.472208684641
 31
0.0
 12
5522.419678511203
 22
4340.486245734232
 32
0.0
 13
5522.419678511203
 23
4340.486245734232
 33
0.0
210
0.0
220
0.0
230
1.0
  0
SOLID
  5
4F2
330
460
100
AcDbEntity
  8
HATCH
  6
CONTINUOUS
 62
     2
100
AcDbTrace
 10
4416.374885038613
 20
4352.472208684718
 30
0.0
 11
4050.471143717059
 21
4351.591023664084
 31
0.0
 12
4403.592521916568
 22
4340.486245734287
 32
0.0
 13
4403.592521916568
 23
4340.486245734287
 33
0.0
  0
SOLID
  5
4F3
330
460
100
AcDbEntity
  8
HATCH
  6
CONTINUOUS
 62
     2
100
AcDbTrace
 10
4062.794601851861
 20
4364.080090379761
 30
0.0
 11
4050.471143717059
 21
4351.591023664084
 31
0.0
 12
4416.374885038613
 22
4352.472208684718
 32
0.0
 13
4416.374885038613
 23
4352.472208684718
 33
0.0
210
0.0
220
0.0
230
1.0
  0
SOLID
  5
4F4
330
460
100
AcDbEntity
  8
HATCH
  6
CONTINUOUS
 62
     2
100
AcDbTrace
 10
4497.695031525066
 20
4365.05788114691
 30
0.0
 11
4490.569094759162
 21
4352.472208684641
 31
0.0
 12
5529.799579300595
 22
4352.472208684662
 32
0.0
 13
5529.799579300595
 23
4352.472208684662
 33
0.0
210
0.0
220
0.0
230
1.0
  0
SOLID
  5
4F5
330
460
100
AcDbEntity
  8
HATCH
  6
CONTINUOUS
 62
     2
100
AcDbTrace
 10
5536.925516066498
 20
4365.057881146933
 30
0.0
 11
4497.695031525066
 21
4365.05788114691
 31
0.0
 12
5529.799579300595
 22
4352.472208684662
 32
0.0
 13
5529.799579300595
 23
4352.472208684662
 33
0.0
210
0.0
220
0.0
230
1.0
  0
SOLID
  5
4F6
330
460
100
AcDbEntity
  8
HATCH
  6
CONTINUOUS
 62
     2
100
AcDbTrace
 10
4428.717369568679
 20
4365.05788114699
 30
0.0
 11
4062.794601851861
 21
4364.080090379761
 31
0.0
 12
4416.374885038613
 22
4352.472208684718
 32
0.0
 13
4416.374885038613
 23
4352.472208684718
 33
0.0
210
0.0
220
0.0
230
1.0
  0
SOLID
  5
4F7
330
460
100
AcDbEntity
  8
HATCH
  6
CONTINUOUS
 62
     2
100
AcDbTrace
 10
4074.66254432355
 20
4377.144145516427
 30
0.0
 11
4062.794601851861
 21
4364.080090379761
 31
0.0
 12
4428.717369568679
 22
4365.05788114699
 32
0.0
 13
4428.717369568679
 23
4365.05788114699
 33
0.0
210
0.0
220
0.0
230
1.0
  0
SOLID
  5
4F8
330
460
100
AcDbEntity
  8
HATCH
  6
CONTINUOUS
 62
     2
100
AcDbTrace
 10
4504.554829724052
 20
4378.221760710738
 30
0.0
 11
4497.695031525066
 21
4365.05788114691
 31
0.0
 12
5536.925516066498
 22
4365.057881146933
 32
0.0
 13
5536.925516066498
 23
4365.057881146933
 33
0.0
210
0.0
220
0.0
230
1.0
  0
SOLID
  5
4F9
330
460
100
AcDbEntity
  8
HATCH
  6
CONTINUOUS
 62
     2
100
AcDbTrace
 10
5543.785314265482
 20
4378.22176071076
 30
0.0
 11
4504.554829724052
 21
4378.221760710738
 31
0.0
 12
5536.925516066498
 22
4365.057881146933
 32
0.0
 13
5536.925516066498
 23
4365.057881146933
 33
0.0
210
0.0
220
0.0
230
1.0
  0
SOLID
  5
4FA
330
460
100
AcDbEntity
  8
HATCH
  6
CONTINUOUS
 62
     2
100
AcDbTrace
 10
4440.598888578991
 20
4378.221760710818
 30
0.0
 11
4074.66254432355
 21
4377.144145516427
 31
0.0
 12
4428.717369568679
 22
4365.05788114699
 32
0.0
 13
4428.717369568679
 23
4365.05788114699
 33
0.0
210
0.0
220
0.0
230
1.0
  0
SOLID
  5
4FB
330
460
100
AcDbEntity
  8
HATCH
  6
CONTINUOUS
 62
     2
100
AcDbTrace
 10
4086.054865909461
 20
4390.761057543016
 30
0.0
 11
4074.66254432355
 21
4377.144145516427
 31
0.0
 12
4440.598888578991
 22
4378.221760710818
 32
0.0
 13
4440.598888578991
 23
4378.221760710818
 33
0.0
210
0.0
220
0.0
230
1.0
  0
SOLID
  5
4FC
330
460
100
AcDbEntity
  8
HATCH
  6
CONTINUOUS
 62
     2
100
AcDbTrace
 10
4511.136769505966
 20
4391.941357108708
 30
0.0
 11
4504.554829724052
 21
4378.221760710738
 31
0.0
 12
5543.785314265482
 22
4378.22176071076
 32
0.0
 13
5543.785314265482
 23
4378.22176071076
 33
0.0
210
0.0
220
0.0
230
1.0
  0
SOLID
  5
4FD
330
460
100
AcDbEntity
  8
HATCH
  6
CONTINUOUS
 62
     2
100
AcDbTrace
 10
5550.367254047394
 20
4391.941357108732
 30
0.0
 11
4511.136769505966
 21
4391.941357108708
 31
0.0
 12
5543.785314265482
 22
4378.22176071076
 32
0.0
 13
5543.785314265482
 23
4378.22176071076
 33
0.0
210
0.0
220
0.0
230
1.0
  0
SOLID
  5
4FE
330
460
100
AcDbEntity
  8
HATCH
  6
CONTINUOUS
 62
     2
100
AcDbTrace
 10
4451.999142693624
 20
4391.94135710879
 30
0.0
 11
4086.054865909461
 21
4390.761057543016
 31
0.0
 12
4440.598888578991
 22
4378.221760710818
 32
0.0
 13
4440.598888578991
 23
4378.221760710818
 33
0.0
210
0.0
220
0.0
230
1.0
  0
SOLID
  5
4FF
330
460
100
AcDbEntity
  8
HATCH
  6
CONTINUOUS
 62
     2
100
AcDbTrace
 10
4096.952267125899
 20
4404.90775834566
 30
0.0
 11
4086.054865909461
 21
4390.761057543016
 31
0.0
 12
4451.999142693624
 22
4391.94135710879
 32
0.0
 13
4451.999142693624
 23
4391.94135710879
 33
0.0
  0
SOLID
  5
500
330
460
100
AcDbEntity
  8
HATCH
  6
CONTINUOUS
 62
     2
100
AcDbTrace
 10
4517.429605737102
 20
4406.193230640517
 30
0.0
 11
4511.136769505966
 21
4391.941357108708
 31
0.0
 12
5550.367254047394
 22
4391.941357108732
 32
0.0
 13
5550.367254047394
 23
4391.941357108732
 33
0.0
210
0.0
220
0.0
230
1.0
  0
SOLID
  5
501
330
460
100
AcDbEntity
  8
HATCH
  6
CONTINUOUS
 62
     2
100
AcDbTrace
 10
5556.660090278527
 20
4406.193230640541
 30
0.0
 11
4517.429605737102
 21
4406.193230640517
 31
0.0
 12
5550.367254047394
 22
4391.941357108732
 32
0.0
 13
5550.367254047394
 23
4391.941357108732
 33
0.0
210
0.0
220
0.0
230
1.0
  0
SOLID
  5
502
330
460
100
AcDbEntity
  8
HATCH
  6
CONTINUOUS
 62
     2
100
AcDbTrace
 10
4462.898654769658
 20
4406.193230640599
 30
0.0
 11
4096.952267125899
 21
4404.90775834566
 31
0.0
 12
4451.999142693624
 22
4391.94135710879
 32
0.0
 13
4451.999142693624
 23
4391.94135710879
 33
0.0
210
0.0
220
0.0
230
1.0
  0
SOLID
  5
503
330
460
100
AcDbEntity
  8
HATCH
  6
CONTINUOUS
 62
     2
100
AcDbTrace
 10
4107.336286922987
 20
4419.560282306871
 30
0.0
 11
4096.952267125899
 21
4404.90775834566
 31
0.0
 12
4462.898654769658
 22
4406.193230640599
 32
0.0
 13
4462.898654769658
 23
4406.193230640599
 33
0.0
  0
SOLID
  5
504
330
460
100
AcDbEntity
  8
HATCH
  6
CONTINUOUS
 62
     2
100
AcDbTrace
 10
4523.422587212317
 20
4420.953032219302
 30
0.0
 11
4517.429605737102
 21
4406.193230640517
 31
0.0
 12
5556.660090278527
 22
4406.193230640541
 32
0.0
 13
5556.660090278527
 23
4406.193230640541
 33
0.0
210
0.0
220
0.0
230
1.0
  0
SOLID
  5
505
330
460
100
AcDbEntity
  8
HATCH
  6
CONTINUOUS
 62
     2
100
AcDbTrace
 10
5562.653071753742
 20
4420.953032219326
 30
0.0
 11
4523.422587212317
 21
4420.953032219302
 31
0.0
 12
5556.660090278527
 22
4406.193230640541
 32
0.0
 13
5556.660090278527
 23
4406.193230640541
 33
0.0
210
0.0
220
0.0
230
1.0
  0
SOLID
  5
506
330
460
100
AcDbEntity
  8
HATCH
  6
CONTINUOUS
 62
     2
100
AcDbTrace
 10
4473.278803173548
 20
4420.953032219385
 30
0.0
 11
4107.336286922987
 21
4419.560282306871
 31
0.0
 12
4462.898654769658
 22
4406.193230640599
 32
0.0
 13
4462.898654769658
 23
4406.193230640599
 33
0.0
210
0.0
220
0.0
230
1.0
  0
SOLID
  5
507
330
460
100
AcDbEntity
  8
HATCH
  6
CONTINUOUS
 62
     2
100
AcDbTrace
 10
4117.189333959114
 20
4434.693806905175
 30
0.0
 11
4107.336286922987
 21
4419.560282306871
 31
0.0
 12
4473.278803173548
 22
4420.953032219385
 32
0.0
 13
4473.278803173548
 23
4420.953032219385
 33
0.0
210
0.0
220
0.0
230
1.0
  0
SOLID
  5
508
330
460
100
AcDbEntity
  8
HATCH
  6
CONTINUOUS
 62
     2
100
AcDbTrace
 10
4529.105475023292
 20
4436.195544971656
 30
0.0
 11
4523.422587212317
 21
4420.953032219302
 31
0.0
 12
5562.653071753742
 22
4420.953032219326
 32
0.0
 13
5562.653071753742
 23
4420.953032219326
 33
0.0
  0
SOLID
  5
509
330
460
100
AcDbEntity
  8
HATCH
  6
CONTINUOUS
 62
     2
100
AcDbTrace
 10
5568.335959564713
 20
4436.195544971682
 30
0.0
 11
4529.105475023292
 21
4436.195544971656
 31
0.0
 12
5562.653071753742
 22
4420.953032219326
 32
0.0
 13
5562.653071753742
 23
4420.953032219326
 33
0.0
210
0.0
220
0.0
230
1.0
  0
SOLID
  5
50A
330
460
100
AcDbEntity
  8
HATCH
  6
CONTINUOUS
 62
     2
100
AcDbTrace
 10
4483.121853595869
 20
4436.195544971741
 30
0.0
 11
4117.189333959114
 21
4434.693806905175
 31
0.0
 12
4473.278803173548
 22
4420.953032219385
 32
0.0
 13
4473.278803173548
 23
4420.953032219385
 33
0.0
210
0.0
220
0.0
230
1.0
  0
SOLID
  5
50B
330
460
100
AcDbEntity
  8
HATCH
  6
CONTINUOUS
 62
     2
100
AcDbTrace
 10
4126.494716402055
 20
4450.282694766396
 30
0.0
 11
4117.189333959114
 21
4434.693806905175
 31
0.0
 12
4483.121853595869
 22
4436.195544971741
 32
0.0
 13
4483.121853595869
 23
4436.195544971741
 33
0.0
210
0.0
220
0.0
230
1.0
  0
SOLID
  5
50C
330
460
100
AcDbEntity
  8
HATCH
  6
CONTINUOUS
 62
     2
100
AcDbTrace
 10
4534.468560051529
 20
4451.894727320232
 30
0.0
 11
4529.105475023292
 21
4436.195544971656
 31
0.0
 12
5568.335959564713
 22
4436.195544971682
 32
0.0
 13
5568.335959564713
 23
4436.195544971682
 33
0.0
210
0.0
220
0.0
230
1.0
  0
SOLID
  5
50D
330
460
100
AcDbEntity
  8
HATCH
  6
CONTINUOUS
 62
     2
100
AcDbTrace
 10
5573.699044592948
 20
4451.894727320257
 30
0.0
 11
4534.468560051529
 21
4451.894727320232
 31
0.0
 12
5568.335959564713
 22
4436.195544971682
 32
0.0
 13
5568.335959564713
 23
4436.195544971682
 33
0.0
210
0.0
220
0.0
230
1.0
  0
SOLID
  5
50E
330
460
100
AcDbEntity
  8
HATCH
  6
CONTINUOUS
 62
     2
100
AcDbTrace
 10
4492.410989350085
 20
4451.894727320317
 30
0.0
 11
4126.494716402055
 21
4450.282694766396
 31
0.0
 12
4483.121853595869
 22
4436.195544971741
 32
0.0
 13
4483.121853595869
 23
4436.195544971741
 33
0.0
  0
SOLID
  5
50F
330
460
100
AcDbEntity
  8
HATCH
  6
CONTINUOUS
 62
     2
100
AcDbTrace
 10
4135.236670206233
 20
4466.300537095388
 30
0.0
 11
4126.494716402055
 21
4450.282694766396
 31
0.0
 12
4492.410989350085
 22
4451.894727320317
 32
0.0
 13
4492.410989350085
 23
4451.894727320317
 33
0.0
210
0.0
220
0.0
230
1.0
  0
SOLID
  5
510
330
460
100
AcDbEntity
  8
HATCH
  6
CONTINUOUS
 62
     2
100
AcDbTrace
 10
4539.502679556222
 20
4468.023757475331
 30
0.0
 11
4534.468560051529
 21
4451.894727320232
 31
0.0
 12
5573.699044592948
 22
4451.894727320257
 32
0.0
 13
5573.699044592948
 23
4451.894727320257
 33
0.0
210
0.0
220
0.0
230
1.0
  0
SOLID
  5
511
330
460
100
AcDbEntity
  8
HATCH
  6
CONTINUOUS
 62
     2
100
AcDbTrace
 10
5578.733164097638
 20
4468.023757475358
 30
0.0
 11
4539.502679556222
 21
4468.023757475331
 31
0.0
 12
5573.699044592948
 22
4451.894727320257
 32
0.0
 13
5573.699044592948
 23
4451.894727320257
 33
0.0
210
0.0
220
0.0
230
1.0
  0
SOLID
  5
512
330
460
100
AcDbEntity
  8
HATCH
  6
CONTINUOUS
 62
     2
100
AcDbTrace
 10
4501.130340103584
 20
4468.023757475417
 30
0.0
 11
4135.236670206233
 21
4466.300537095388
 31
0.0
 12
4492.410989350085
 22
4451.894727320317
 32
0.0
 13
4492.410989350085
 23
4451.894727320317
 33
0.0
210
0.0
220
0.0
230
1.0
  0
SOLID
  5
513
330
460
100
AcDbEntity
  8
HATCH
  6
CONTINUOUS
 62
     2
100
AcDbTrace
 10
4143.400385818249
 20
4482.720198414585
 30
0.0
 11
4135.236670206233
 21
4466.300537095388
 31
0.0
 12
4501.130340103584
 22
4468.023757475417
 32
0.0
 13
4501.130340103584
 23
4468.023757475417
 33
0.0
210
0.0
220
0.0
230
1.0
  0
SOLID
  5
514
330
460
100
AcDbEntity
  8
HATCH
  6
CONTINUOUS
 62
     2
100
AcDbTrace
 10
4544.199232828641
 20
4484.555079259493
 30
0.0
 11
4539.502679556222
 21
4468.023757475331
 31
0.0
 12
5578.733164097638
 22
4468.023757475358
 32
0.0
 13
5578.733164097638
 23
4468.023757475358
 33
0.0
210
0.0
220
0.0
230
1.0
  0
SOLID
  5
515
330
460
100
AcDbEntity
  8
HATCH
  6
CONTINUOUS
 62
     2
100
AcDbTrace
 10
5583.429717370054
 20
4484.555079259521
 30
0.0
 11
4544.199232828641
 21
4484.555079259493
 31
0.0
 12
5578.733164097638
 22
4468.023757475358
 32
0.0
 13
5578.733164097638
 23
4468.023757475358
 33
0.0
210
0.0
220
0.0
230
1.0
  0
SOLID
  5
516
330
460
100
AcDbEntity
  8
HATCH
  6
CONTINUOUS
 62
     2
100
AcDbTrace
 10
4509.265008991866
 20
4484.555079259581
 30
0.0
 11
4143.400385818249
 21
4482.720198414585
 31
0.0
 12
4501.130340103584
 22
4468.023757475417
 32
0.0
 13
4501.130340103584
 23
4468.023757475417
 33
0.0
  0
SOLID
  5
517
330
460
100
AcDbEntity
  8
HATCH
  6
CONTINUOUS
 62
     2
100
AcDbTrace
 10
4150.97203326542
 20
4499.513862533629
 30
0.0
 11
4143.400385818249
 21
4482.720198414585
 31
0.0
 12
4509.265008991866
 22
4484.555079259581
 32
0.0
 13
4509.265008991866
 23
4484.555079259581
 33
0.0
210
0.0
220
0.0
230
1.0
  0
SOLID
  5
518
330
460
100
AcDbEntity
  8
HATCH
  6
CONTINUOUS
 62
     2
100
AcDbTrace
 10
4548.550195886305
 20
4501.460449186756
 30
0.0
 11
4544.199232828641
 21
4484.555079259493
 31
0.0
 12
5583.429717370054
 22
4484.555079259521
 32
0.0
 13
5583.429717370054
 23
4484.555079259521
 33
0.0
210
0.0
220
0.0
230
1.0
  0
SOLID
  5
519
330
460
100
AcDbEntity
  8
HATCH
  6
CONTINUOUS
 62
     2
100
AcDbTrace
 10
5587.780680427716
 20
4501.460449186785
 30
0.0
 11
4548.550195886305
 21
4501.460449186756
 31
0.0
 12
5583.429717370054
 22
4484.555079259521
 32
0.0
 13
5583.429717370054
 23
4484.555079259521
 33
0.0
210
0.0
220
0.0
230
1.0
  0
SOLID
  5
51A
330
460
100
AcDbEntity
  8
HATCH
  6
CONTINUOUS
 62
     2
100
AcDbTrace
 10
4516.801098069591
 20
4501.460449186843
 30
0.0
 11
4150.97203326542
 21
4499.513862533629
 31
0.0
 12
4509.265008991866
 22
4484.555079259581
 32
0.0
 13
4509.265008991866
 23
4484.555079259581
 33
0.0
210
0.0
220
0.0
230
1.0
  0
SOLID
  5
51B
330
460
100
AcDbEntity
  8
HATCH
  6
CONTINUOUS
 62
     2
100
AcDbTrace
 10
4157.938785584837
 20
4516.653079672173
 30
0.0
 11
4150.97203326542
 21
4499.513862533629
 31
0.0
 12
4516.801098069591
 22
4501.460449186843
 32
0.0
 13
4516.801098069591
 23
4501.460449186843
 33
0.0
210
0.0
220
0.0
230
1.0
  0
SOLID
  5
51C
330
460
100
AcDbEntity
  8
HATCH
  6
CONTINUOUS
 62
     2
100
AcDbTrace
 10
4552.548135181814
 20
4518.710984716181
 30
0.0
 11
4548.550195886305
 21
4501.460449186756
 31
0.0
 12
5587.780680427716
 22
4501.460449186785
 32
0.0
 13
5587.780680427716
 23
4501.460449186785
 33
0.0
210
0.0
220
0.0
230
1.0
  0
SOLID
  5
51D
330
460
100
AcDbEntity
  8
HATCH
  6
CONTINUOUS
 62
     2
100
AcDbTrace
 10
5591.77861972322
 20
4518.71098471621
 30
0.0
 11
4552.548135181814
 21
4518.710984716181
 31
0.0
 12
5587.780680427716
 22
4501.460449186785
 32
0.0
 13
5587.780680427716
 23
4501.460449186785
 33
0.0
210
0.0
220
0.0
230
1.0
  0
SOLID
  5
51E
330
460
100
AcDbEntity
  8
HATCH
  6
CONTINUOUS
 62
     2
100
AcDbTrace
 10
4523.725732054987
 20
4518.710984716269
 30
0.0
 11
4157.938785584837
 21
4516.653079672173
 31
0.0
 12
4516.801098069591
 22
4501.460449186843
 32
0.0
 13
4516.801098069591
 23
4501.460449186843
 33
0.0
210
0.0
220
0.0
230
1.0
  0
SOLID
  5
51F
330
460
100
AcDbEntity
  8
HATCH
  6
CONTINUOUS
 62
     2
100
AcDbTrace
 10
4164.288840553245
 20
4534.108814656025
 30
0.0
 11
4157.938785584837
 21
4516.653079672173
 31
0.0
 12
4523.725732054987
 22
4518.710984716269
 32
0.0
 13
4523.725732054987
 23
4518.710984716269
 33
0.0
210
0.0
220
0.0
230
1.0
  0
SOLID
  5
520
330
460
100
AcDbEntity
  8
HATCH
  6
CONTINUOUS
 62
     2
100
AcDbTrace
 10
4556.186220302946
 20
4536.277213597184
 30
0.0
 11
4552.548135181814
 21
4518.710984716181
 31
0.0
 12
5591.77861972322
 22
4518.71098471621
 32
0.0
 13
5591.77861972322
 23
4518.71098471621
 33
0.0
  0
SOLID
  5
521
330
460
100
AcDbEntity
  8
HATCH
  6
CONTINUOUS
 62
     2
100
AcDbTrace
 10
5595.416704844349
 20
4536.277213597214
 30
0.0
 11
4556.186220302946
 21
4536.277213597184
 31
0.0
 12
5591.77861972322
 22
4518.71098471621
 32
0.0
 13
5591.77861972322
 23
4518.71098471621
 33
0.0
210
0.0
220
0.0
230
1.0
  0
SOLID
  5
522
330
460
100
AcDbEntity
  8
HATCH
  6
CONTINUOUS
 62
     2
100
AcDbTrace
 10
4530.027080327044
 20
4536.277213597274
 30
0.0
 11
4164.288840553245
 21
4534.108814656025
 31
0.0
 12
4523.725732054987
 22
4518.710984716269
 32
0.0
 13
4523.725732054987
 23
4518.710984716269
 33
0.0
  0
SOLID
  5
523
330
460
100
AcDbEntity
  8
HATCH
  6
CONTINUOUS
 62
     2
100
AcDbTrace
 10
4170.011440680926
 20
4551.851496105021
 30
0.0
 11
4164.288840553245
 21
4534.108814656025
 31
0.0
 12
4530.027080327044
 22
4536.277213597274
 32
0.0
 13
4530.027080327044
 23
4536.277213597274
 33
0.0
210
0.0
220
0.0
230
1.0
  0
SOLID
  5
524
330
460
100
AcDbEntity
  8
HATCH
  6
CONTINUOUS
 62
     2
100
AcDbTrace
 10
4559.458235642298
 20
4554.129124222391
 30
0.0
 11
4556.186220302946
 21
4536.277213597184
 31
0.0
 12
5595.416704844349
 22
4536.277213597214
 32
0.0
 13
5595.416704844349
 23
4536.277213597214
 33
0.0
210
0.0
220
0.0
230
1.0
  0
SOLID
  5
525
330
460
100
AcDbEntity
  8
HATCH
  6
CONTINUOUS
 62
     2
100
AcDbTrace
 10
5598.688720183697
 20
4554.129124222423
 30
0.0
 11
4559.458235642298
 21
4554.129124222391
 31
0.0
 12
5595.416704844349
 22
4536.277213597214
 32
0.0
 13
5595.416704844349
 23
4536.277213597214
 33
0.0
210
0.0
220
0.0
230
1.0
  0
SOLID
  5
526
330
460
100
AcDbEntity
  8
HATCH
  6
CONTINUOUS
 62
     2
100
AcDbTrace
 10
4535.694377137945
 20
4554.12912422248
 30
0.0
 11
4170.011440680926
 21
4551.851496105021
 31
0.0
 12
4530.027080327044
 22
4536.277213597274
 32
0.0
 13
4530.027080327044
 23
4536.277213597274
 33
0.0
210
0.0
220
0.0
230
1.0
  0
SOLID
  5
527
330
460
100
AcDbEntity
  8
HATCH
  6
CONTINUOUS
 62
     2
100
AcDbTrace
 10
4175.096891435737
 20
4569.851066529232
 30
0.0
 11
4170.011440680926
 21
4551.851496105021
 31
0.0
 12
4535.694377137945
 22
4554.12912422248
 32
0.0
 13
4535.694377137945
 23
4554.12912422248
 33
0.0
210
0.0
220
0.0
230
1.0
  0
SOLID
  5
528
330
460
100
AcDbEntity
  8
HATCH
  6
CONTINUOUS
 62
     2
100
AcDbTrace
 10
4562.358591016552
 20
4572.236216901957
 30
0.0
 11
4559.458235642298
 21
4554.129124222391
 31
0.0
 12
5598.688720183697
 22
4554.129124222423
 32
0.0
 13
5598.688720183697
 23
4554.129124222423
 33
0.0
210
0.0
220
0.0
230
1.0
  0
SOLID
  5
529
330
460
100
AcDbEntity
  8
HATCH
  6
CONTINUOUS
 62
     2
100
AcDbTrace
 10
5601.589075557947
 20
4572.236216901989
 30
0.0
 11
4562.358591016552
 21
4572.236216901957
 31
0.0
 12
5598.688720183697
 22
4554.129124222423
 32
0.0
 13
5598.688720183697
 23
4554.129124222423
 33
0.0
210
0.0
220
0.0
230
1.0
  0
SOLID
  5
52A
330
460
100
AcDbEntity
  8
HATCH
  6
CONTINUOUS
 62
     2
100
AcDbTrace
 10
4540.717940006152
 20
4572.236216902047
 30
0.0
 11
4175.096891435737
 21
4569.851066529232
 31
0.0
 12
4535.694377137945
 22
4554.12912422248
 32
0.0
 13
4535.694377137945
 23
4554.12912422248
 33
0.0
  0
SOLID
  5
52B
330
460
100
AcDbEntity
  8
HATCH
  6
CONTINUOUS
 62
     2
100
AcDbTrace
 10
4179.536577666392
 20
4588.077033248724
 30
0.0
 11
4175.096891435737
 21
4569.851066529232
 31
0.0
 12
4540.717940006152
 22
4572.236216902047
 32
0.0
 13
4540.717940006152
 23
4572.236216902047
 33
0.0
210
0.0
220
0.0
230
1.0
  0
SOLID
  5
52C
330
460
100
AcDbEntity
  8
HATCH
  6
CONTINUOUS
 62
     2
100
AcDbTrace
 10
4564.882331217201
 20
4590.567555971778
 30
0.0
 11
4562.358591016552
 21
4572.236216901957
 31
0.0
 12
5601.589075557947
 22
4572.236216901989
 32
0.0
 13
5601.589075557947
 23
4572.236216901989
 33
0.0
210
0.0
220
0.0
230
1.0
  0
SOLID
  5
52D
330
460
100
AcDbEntity
  8
HATCH
  6
CONTINUOUS
 62
     2
100
AcDbTrace
 10
5604.112815758591
 20
4590.56755597181
 30
0.0
 11
4564.882331217201
 21
4590.567555971778
 31
0.0
 12
5601.589075557947
 22
4572.236216901989
 32
0.0
 13
5601.589075557947
 23
4572.236216901989
 33
0.0
  0
SOLID
  5
52E
330
460
100
AcDbEntity
  8
HATCH
  6
CONTINUOUS
 62
     2
100
AcDbTrace
 10
4545.089186258778
 20
4590.567555971867
 30
0.0
 11
4179.536577666392
 21
4588.077033248724
 31
0.0
 12
4540.717940006152
 22
4572.236216902047
 32
0.0
 13
4540.717940006152
 23
4572.236216902047
 33
0.0
210
0.0
220
0.0
230
1.0
  0
SOLID
  5
52F
330
460
100
AcDbEntity
  8
HATCH
  6
CONTINUOUS
 62
     2
100
AcDbTrace
 10
4183.32297819722
 20
4606.498520050531
 30
0.0
 11
4179.536577666392
 21
4588.077033248724
 31
0.0
 12
4545.089186258778
 22
4590.567555971867
 32
0.0
 13
4545.089186258778
 23
4590.567555971867
 33
0.0
210
0.0
220
0.0
230
1.0
  0
SOLID
  5
530
330
460
100
AcDbEntity
  8
HATCH
  6
CONTINUOUS
 62
     2
100
AcDbTrace
 10
4567.025144476447
 20
4609.091822646553
 30
0.0
 11
4564.882331217201
 21
4590.567555971778
 31
0.0
 12
5604.112815758591
 22
4590.56755597181
 32
0.0
 13
5604.112815758591
 23
4590.56755597181
 33
0.0
210
0.0
220
0.0
230
1.0
  0
SOLID
  5
531
330
460
100
AcDbEntity
  8
HATCH
  6
CONTINUOUS
 62
     2
100
AcDbTrace
 10
5606.255629017835
 20
4609.091822646586
 30
0.0
 11
4567.025144476447
 21
4609.091822646553
 31
0.0
 12
5604.112815758591
 22
4590.56755597181
 32
0.0
 13
5604.112815758591
 23
4590.56755597181
 33
0.0
210
0.0
220
0.0
230
1.0
  0
SOLID
  5
532
330
460
100
AcDbEntity
  8
HATCH
  6
CONTINUOUS
 62
     2
100
AcDbTrace
 10
4548.800647694922
 20
4609.091822646643
 30
0.0
 11
4183.32297819722
 21
4606.498520050531
 31
0.0
 12
4545.089186258778
 22
4590.567555971867
 32
0.0
 13
4545.089186258778
 23
4590.567555971867
 33
0.0
210
0.0
220
0.0
230
1.0
  0
SOLID
  5
533
330
460
100
AcDbEntity
  8
HATCH
  6
CONTINUOUS
 62
     2
100
AcDbTrace
 10
4186.449678569608
 20
4625.084319495377
 30
0.0
 11
4183.32297819722
 21
4606.498520050531
 31
0.0
 12
4548.800647694922
 22
4609.091822646643
 32
0.0
 13
4548.800647694922
 23
4609.091822646643
 33
0.0
  0
SOLID
  5
534
330
460
100
AcDbEntity
  8
HATCH
  6
CONTINUOUS
 62
     2
100
AcDbTrace
 10
4568.783369833783
 20
4627.777368527406
 30
0.0
 11
4567.025144476447
 21
4609.091822646553
 31
0.0
 12
5606.255629017835
 22
4609.091822646586
 32
0.0
 13
5606.255629017835
 23
4609.091822646586
 33
0.0
210
0.0
220
0.0
230
1.0
  0
SOLID
  5
535
330
460
100
AcDbEntity
  8
HATCH
  6
CONTINUOUS
 62
     2
100
AcDbTrace
 10
5608.013854375165
 20
4627.777368527442
 30
0.0
 11
4568.783369833783
 21
4627.777368527406
 31
0.0
 12
5606.255629017835
 22
4609.091822646586
 32
0.0
 13
5606.255629017835
 23
4609.091822646586
 33
0.0
210
0.0
220
0.0
230
1.0
  0
SOLID
  5
536
330
460
100
AcDbEntity
  8
HATCH
  6
CONTINUOUS
 62
     2
100
AcDbTrace
 10
4551.845983344979
 20
4627.777368527498
 30
0.0
 11
4186.449678569608
 21
4625.084319495377
 31
0.0
 12
4548.800647694922
 22
4609.091822646643
 32
0.0
 13
4548.800647694922
 23
4609.091822646643
 33
0.0
210
0.0
220
0.0
230
1.0
  0
SOLID
  5
537
330
460
100
AcDbEntity
  8
HATCH
  6
CONTINUOUS
 62
     2
100
AcDbTrace
 10
4188.911381908603
 20
4643.802945785519
 30
0.0
 11
4186.449678569608
 21
4625.084319495377
 31
0.0
 12
4551.845983344979
 22
4627.777368527498
 32
0.0
 13
4551.845983344979
 23
4627.777368527498
 33
0.0
210
0.0
220
0.0
230
1.0
  0
SOLID
  5
538
330
460
100
AcDbEntity
  8
HATCH
  6
CONTINUOUS
 62
     2
100
AcDbTrace
 10
4570.154003390679
 20
4646.592269672645
 30
0.0
 11
4568.783369833783
 21
4627.777368527406
 31
0.0
 12
5608.013854375165
 22
4627.777368527442
 32
0.0
 13
5608.013854375165
 23
4627.777368527442
 33
0.0
210
0.0
220
0.0
230
1.0
  0
SOLID
  5
539
330
460
100
AcDbEntity
  8
HATCH
  6
CONTINUOUS
 62
     2
100
AcDbTrace
 10
5609.384487932057
 20
4646.592269672679
 30
0.0
 11
4570.154003390679
 21
4646.592269672645
 31
0.0
 12
5608.013854375165
 22
4627.777368527442
 32
0.0
 13
5608.013854375165
 23
4627.777368527442
 33
0.0
210
0.0
220
0.0
230
1.0
  0
SOLID
  5
53A
330
460
100
AcDbEntity
  8
HATCH
  6
CONTINUOUS
 62
     2
100
AcDbTrace
 10
4554.219990304078
 20
4646.592269672736
 30
0.0
 11
4188.911381908603
 21
4643.802945785519
 31
0.0
 12
4551.845983344979
 22
4627.777368527498
 32
0.0
 13
4551.845983344979
 23
4627.777368527498
 33
0.0
210
0.0
220
0.0
230
1.0
  0
SOLID
  5
53B
330
460
100
AcDbEntity
  8
HATCH
  6
CONTINUOUS
 62
     2
100
AcDbTrace
 10
4190.703917896235
 20
4662.62268810415
 30
0.0
 11
4188.911381908603
 21
4643.802945785519
 31
0.0
 12
4554.219990304078
 22
4646.592269672736
 32
0.0
 13
4554.219990304078
 23
4646.592269672736
 33
0.0
210
0.0
220
0.0
230
1.0
  0
SOLID
  5
53C
330
460
100
AcDbEntity
  8
HATCH
  6
CONTINUOUS
 62
     2
100
AcDbTrace
 10
4571.134703442694
 20
4665.504381139271
 30
0.0
 11
4570.154003390679
 21
4646.592269672645
 31
0.0
 12
5609.384487932057
 22
4646.592269672679
 32
0.0
 13
5609.384487932057
 23
4646.592269672679
 33
0.0
210
0.0
220
0.0
230
1.0
  0
SOLID
  5
53D
330
460
100
AcDbEntity
  8
HATCH
  6
CONTINUOUS
 62
     2
100
AcDbTrace
 10
5610.365187984068
 20
4665.504381139307
 30
0.0
 11
4571.134703442694
 21
4665.504381139271
 31
0.0
 12
5609.384487932057
 22
4646.592269672679
 32
0.0
 13
5609.384487932057
 23
4646.592269672679
 33
0.0
210
0.0
220
0.0
230
1.0
  0
SOLID
  5
53E
330
460
100
AcDbEntity
  8
HATCH
  6
CONTINUOUS
 62
     2
100
AcDbTrace
 10
4555.918612621151
 20
4665.504381139363
 30
0.0
 11
4190.703917896235
 21
4662.62268810415
 31
0.0
 12
4554.219990304078
 22
4646.592269672736
 32
0.0
 13
4554.219990304078
 23
4646.592269672736
 33
0.0
210
0.0
220
0.0
230
1.0
  0
SOLID
  5
53F
330
460
100
AcDbEntity
  8
HATCH
  6
CONTINUOUS
 62
     2
100
AcDbTrace
 10
4191.82424983636
 20
4681.511664336004
 30
0.0
 11
4190.703917896235
 21
4662.62268810415
 31
0.0
 12
4555.918612621151
 22
4665.504381139363
 32
0.0
 13
4555.918612621151
 23
4665.504381139363
 33
0.0
210
0.0
220
0.0
230
1.0
  0
SOLID
  5
540
330
460
100
AcDbEntity
  8
HATCH
  6
CONTINUOUS
 62
     2
100
AcDbTrace
 10
4571.72379448024
 20
4684.481391902091
 30
0.0
 11
4571.134703442694
 21
4665.504381139271
 31
0.0
 12
5610.365187984068
 22
4665.504381139307
 32
0.0
 13
5610.365187984068
 23
4665.504381139307
 33
0.0
210
0.0
220
0.0
230
1.0
  0
SOLID
  5
541
330
460
100
AcDbEntity
  8
HATCH
  6
CONTINUOUS
 62
     2
100
AcDbTrace
 10
5610.954279021609
 20
4684.481391902126
 30
0.0
 11
4571.72379448024
 21
4684.481391902091
 31
0.0
 12
5610.365187984068
 22
4665.504381139307
 32
0.0
 13
5610.365187984068
 23
4665.504381139307
 33
0.0
210
0.0
220
0.0
230
1.0
  0
SOLID
  5
542
330
460
100
AcDbEntity
  8
HATCH
  6
CONTINUOUS
 62
     2
100
AcDbTrace
 10
4556.93894822846
 20
4684.481391902181
 30
0.0
 11
4191.82424983636
 21
4681.511664336004
 31
0.0
 12
4555.918612621151
 22
4665.504381139363
 32
0.0
 13
4555.918612621151
 23
4665.504381139363
 33
0.0
  0
SOLID
  5
543
330
460
100
AcDbEntity
  8
HATCH
  6
CONTINUOUS
 62
     2
100
AcDbTrace
 10
4192.270479799054
 20
4700.437875078152
 30
0.0
 11
4191.82424983636
 21
4681.511664336004
 31
0.0
 12
4556.93894822846
 22
4684.481391902181
 32
0.0
 13
4556.93894822846
 23
4684.481391902181
 33
0.0
  0
SOLID
  5
544
330
460
100
AcDbEntity
  8
HATCH
  6
CONTINUOUS
 62
     2
100
AcDbTrace
 10
4557.279253899741
 20
4703.490880056544
 30
0.0
 11
4192.270479799054
 21
4700.437875078152
 31
0.0
 12
4556.93894822846
 22
4684.481391902181
 32
0.0
 13
4556.93894822846
 23
4684.481391902181
 33
0.0
  0
SOLID
  5
545
330
460
100
AcDbEntity
  8
HATCH
  6
CONTINUOUS
 62
     2
100
AcDbTrace
 10
4571.920270051162
 20
4703.490880056544
 30
0.0
 11
4571.72379448024
 21
4684.481391902091
 31
0.0
 12
5610.954279021609
 22
4684.481391902126
 32
0.0
 13
5610.954279021609
 23
4684.481391902126
 33
0.0
210
0.0
220
0.0
230
1.0
  0
SOLID
  5
546
330
460
100
AcDbEntity
  8
HATCH
  6
CONTINUOUS
 62
     2
100
AcDbTrace
 10
5611.150754592526
 20
4703.490880056574
 30
0.0
 11
4571.920270051162
 21
4703.490880056544
 31
0.0
 12
5610.954279021609
 22
4684.481391902126
 32
0.0
 13
5610.954279021609
 23
4684.481391902126
 33
0.0
210
0.0
220
0.0
230
1.0
  0
SOLID
  5
547
330
460
100
AcDbEntity
  8
HATCH
  6
CONTINUOUS
 62
     2
100
AcDbTrace
 10
4192.041851835863
 20
4719.369257849488
 30
0.0
 11
4192.270479799054
 21
4700.437875078152
 31
0.0
 12
4557.279253899741
 22
4703.490880056544
 32
0.0
 13
4557.279253899741
 23
4703.490880056544
 33
0.0
210
0.0
220
0.0
230
1.0
  0
SOLID
  5
548
330
460
100
AcDbEntity
  8
HATCH
  6
CONTINUOUS
 62
     2
100
AcDbTrace
 10
4571.723794480242
 20
4722.500368210993
 30
0.0
 11
4571.920270051162
 21
4703.490880056544
 31
0.0
 12
5611.150754592526
 22
4703.490880056574
 32
0.0
 13
5611.150754592526
 23
4703.490880056574
 33
0.0
210
0.0
220
0.0
230
1.0
  0
SOLID
  5
549
330
460
100
AcDbEntity
  8
HATCH
  6
CONTINUOUS
 62
     2
100
AcDbTrace
 10
4556.938948228461
 20
4722.500368210998
 30
0.0
 11
4192.041851835863
 21
4719.369257849488
 31
0.0
 12
4557.279253899741
 22
4703.490880056544
 32
0.0
 13
4557.279253899741
 23
4703.490880056544
 33
0.0
210
0.0
220
0.0
230
1.0
  0
SOLID
  5
54A
330
460
100
AcDbEntity
  8
HATCH
  6
CONTINUOUS
 62
     2
100
AcDbTrace
 10
5610.954279021601
 20
4722.500368211029
 30
0.0
 11
4571.723794480242
 21
4722.500368210993
 31
0.0
 12
5611.150754592526
 22
4703.490880056574
 32
0.0
 13
5611.150754592526
 23
4703.490880056574
 33
0.0
210
0.0
220
0.0
230
1.0
  0
SOLID
  5
54B
330
460
100
AcDbEntity
  8
HATCH
  6
CONTINUOUS
 62
     2
100
AcDbTrace
 10
4191.138753260439
 20
4738.273741407092
 30
0.0
 11
4192.041851835863
 21
4719.369257849488
 31
0.0
 12
4556.938948228461
 22
4722.500368210998
 32
0.0
 13
4556.938948228461
 23
4722.500368210998
 33
0.0
210
0.0
220
0.0
230
1.0
  0
SOLID
  5
54C
330
460
100
AcDbEntity
  8
HATCH
  6
CONTINUOUS
 62
     2
100
AcDbTrace
 10
4571.1347034427
 20
4741.477378973812
 30
0.0
 11
4571.723794480242
 21
4722.500368210993
 31
0.0
 12
5610.954279021601
 22
4722.500368211029
 32
0.0
 13
5610.954279021601
 23
4722.500368211029
 33
0.0
210
0.0
220
0.0
230
1.0
  0
SOLID
  5
54D
330
460
100
AcDbEntity
  8
HATCH
  6
CONTINUOUS
 62
     2
100
AcDbTrace
 10
4555.918612621151
 20
4741.477378973818
 30
0.0
 11
4191.138753260439
 21
4738.273741407092
 31
0.0
 12
4556.938948228461
 22
4722.500368210998
 32
0.0
 13
4556.938948228461
 23
4722.500368210998
 33
0.0
210
0.0
220
0.0
230
1.0
  0
SOLID
  5
54E
330
460
100
AcDbEntity
  8
HATCH
  6
CONTINUOUS
 62
     2
100
AcDbTrace
 10
5610.365187984053
 20
4741.47737897385
 30
0.0
 11
4571.1347034427
 21
4741.477378973812
 31
0.0
 12
5610.954279021601
 22
4722.500368211029
 32
0.0
 13
5610.954279021601
 23
4722.500368211029
 33
0.0
210
0.0
220
0.0
230
1.0
  0
SOLID
  5
54F
330
460
100
AcDbEntity
  8
HATCH
  6
CONTINUOUS
 62
     2
100
AcDbTrace
 10
4189.562713992392
 20
4757.11930007741
 30
0.0
 11
4191.138753260439
 21
4738.273741407092
 31
0.0
 12
4555.918612621151
 22
4741.477378973818
 32
0.0
 13
4555.918612621151
 23
4741.477378973818
 33
0.0
210
0.0
220
0.0
230
1.0
  0
SOLID
  5
550
330
460
100
AcDbEntity
  8
HATCH
  6
CONTINUOUS
 62
     2
100
AcDbTrace
 10
4570.154003390688
 20
4760.389490440439
 30
0.0
 11
4571.1347034427
 21
4741.477378973812
 31
0.0
 12
5610.365187984053
 22
4741.47737897385
 32
0.0
 13
5610.365187984053
 23
4741.47737897385
 33
0.0
210
0.0
220
0.0
230
1.0
  0
SOLID
  5
551
330
460
100
AcDbEntity
  8
HATCH
  6
CONTINUOUS
 62
     2
100
AcDbTrace
 10
4554.219990304079
 20
4760.389490440444
 30
0.0
 11
4189.562713992392
 21
4757.11930007741
 31
0.0
 12
4555.918612621151
 22
4741.477378973818
 32
0.0
 13
4555.918612621151
 23
4741.477378973818
 33
0.0
  0
SOLID
  5
552
330
460
100
AcDbEntity
  8
HATCH
  6
CONTINUOUS
 62
     2
100
AcDbTrace
 10
5609.384487932036
 20
4760.389490440479
 30
0.0
 11
4570.154003390688
 21
4760.389490440439
 31
0.0
 12
5610.365187984053
 22
4741.47737897385
 32
0.0
 13
5610.365187984053
 23
4741.47737897385
 33
0.0
210
0.0
220
0.0
230
1.0
  0
SOLID
  5
553
330
460
100
AcDbEntity
  8
HATCH
  6
CONTINUOUS
 62
     2
100
AcDbTrace
 10
4187.316403965496
 20
4775.874008010256
 30
0.0
 11
4189.562713992392
 21
4757.11930007741
 31
0.0
 12
4554.219990304079
 22
4760.389490440444
 32
0.0
 13
4554.219990304079
 23
4760.389490440444
 33
0.0
210
0.0
220
0.0
230
1.0
  0
SOLID
  5
554
330
460
100
AcDbEntity
  8
HATCH
  6
CONTINUOUS
 62
     2
100
AcDbTrace
 10
4568.783369833794
 20
4779.204391585676
 30
0.0
 11
4570.154003390688
 21
4760.389490440439
 31
0.0
 12
5609.384487932036
 22
4760.389490440479
 32
0.0
 13
5609.384487932036
 23
4760.389490440479
 33
0.0
210
0.0
220
0.0
230
1.0
  0
SOLID
  5
555
330
460
100
AcDbEntity
  8
HATCH
  6
CONTINUOUS
 62
     2
100
AcDbTrace
 10
4551.84598334498
 20
4779.204391585682
 30
0.0
 11
4187.316403965496
 21
4775.874008010256
 31
0.0
 12
4554.219990304079
 22
4760.389490440444
 32
0.0
 13
4554.219990304079
 23
4760.389490440444
 33
0.0
210
0.0
220
0.0
230
1.0
  0
SOLID
  5
556
330
460
100
AcDbEntity
  8
HATCH
  6
CONTINUOUS
 62
     2
100
AcDbTrace
 10
5608.013854375138
 20
4779.204391585718
 30
0.0
 11
4568.783369833794
 21
4779.204391585676
 31
0.0
 12
5609.384487932036
 22
4760.389490440479
 32
0.0
 13
5609.384487932036
 23
4760.389490440479
 33
0.0
210
0.0
220
0.0
230
1.0
  0
SOLID
  5
557
330
460
100
AcDbEntity
  8
HATCH
  6
CONTINUOUS
 62
     2
100
AcDbTrace
 10
4184.403628604608
 20
4794.5060932637
 30
0.0
 11
4187.316403965496
 21
4775.874008010256
 31
0.0
 12
4551.84598334498
 22
4779.204391585682
 32
0.0
 13
4551.84598334498
 23
4779.204391585682
 33
0.0
210
0.0
220
0.0
230
1.0
  0
SOLID
  5
558
330
460
100
AcDbEntity
  8
HATCH
  6
CONTINUOUS
 62
     2
100
AcDbTrace
 10
4567.025144476462
 20
4797.889937466531
 30
0.0
 11
4568.783369833794
 21
4779.204391585676
 31
0.0
 12
5608.013854375138
 22
4779.204391585718
 32
0.0
 13
5608.013854375138
 23
4779.204391585718
 33
0.0
210
0.0
220
0.0
230
1.0
  0
SOLID
  5
559
330
460
100
AcDbEntity
  8
HATCH
  6
CONTINUOUS
 62
     2
100
AcDbTrace
 10
4548.800647694922
 20
4797.889937466536
 30
0.0
 11
4184.403628604608
 21
4794.5060932637
 31
0.0
 12
4551.84598334498
 22
4779.204391585682
 32
0.0
 13
4551.84598334498
 23
4779.204391585682
 33
0.0
210
0.0
220
0.0
230
1.0
  0
SOLID
  5
55A
330
460
100
AcDbEntity
  8
HATCH
  6
CONTINUOUS
 62
     2
100
AcDbTrace
 10
5606.2556290178
 20
4797.889937466574
 30
0.0
 11
4567.025144476462
 21
4797.889937466531
 31
0.0
 12
5608.013854375138
 22
4779.204391585718
 32
0.0
 13
5608.013854375138
 23
4779.204391585718
 33
0.0
210
0.0
220
0.0
230
1.0
  0
SOLID
  5
55B
330
460
100
AcDbEntity
  8
HATCH
  6
CONTINUOUS
 62
     2
100
AcDbTrace
 10
4180.829322378976
 20
4812.983991628221
 30
0.0
 11
4184.403628604608
 21
4794.5060932637
 31
0.0
 12
4548.800647694922
 22
4797.889937466536
 32
0.0
 13
4548.800647694922
 23
4797.889937466536
 33
0.0
210
0.0
220
0.0
230
1.0
  0
SOLID
  5
55C
330
460
100
AcDbEntity
  8
HATCH
  6
CONTINUOUS
 62
     2
100
AcDbTrace
 10
4564.882331217218
 20
4816.414204141307
 30
0.0
 11
4567.025144476462
 21
4797.889937466531
 31
0.0
 12
5606.2556290178
 22
4797.889937466574
 32
0.0
 13
5606.2556290178
 23
4797.889937466574
 33
0.0
  0
SOLID
  5
55D
330
460
100
AcDbEntity
  8
HATCH
  6
CONTINUOUS
 62
     2
100
AcDbTrace
 10
4545.089186258779
 20
4816.414204141311
 30
0.0
 11
4180.829322378976
 21
4812.983991628221
 31
0.0
 12
4548.800647694922
 22
4797.889937466536
 32
0.0
 13
4548.800647694922
 23
4797.889937466536
 33
0.0
210
0.0
220
0.0
230
1.0
  0
SOLID
  5
55E
330
460
100
AcDbEntity
  8
HATCH
  6
CONTINUOUS
 62
     2
100
AcDbTrace
 10
5604.112815758551
 20
4816.414204141352
 30
0.0
 11
4564.882331217218
 21
4816.414204141307
 31
0.0
 12
5606.2556290178
 22
4797.889937466574
 32
0.0
 13
5606.2556290178
 23
4797.889937466574
 33
0.0
210
0.0
220
0.0
230
1.0
  0
SOLID
  5
55F
330
460
100
AcDbEntity
  8
HATCH
  6
CONTINUOUS
 62
     2
100
AcDbTrace
 10
4176.599540442875
 20
4831.276400098941
 30
0.0
 11
4180.829322378976
 21
4812.983991628221
 31
0.0
 12
4545.089186258779
 22
4816.414204141311
 32
0.0
 13
4545.089186258779
 23
4816.414204141311
 33
0.0
210
0.0
220
0.0
230
1.0
  0
SOLID
  5
560
330
460
100
AcDbEntity
  8
HATCH
  6
CONTINUOUS
 62
     2
100
AcDbTrace
 10
4562.358591016572
 20
4834.745543211128
 30
0.0
 11
4564.882331217218
 21
4816.414204141307
 31
0.0
 12
5604.112815758551
 22
4816.414204141352
 32
0.0
 13
5604.112815758551
 23
4816.414204141352
 33
0.0
210
0.0
220
0.0
230
1.0
  0
SOLID
  5
561
330
460
100
AcDbEntity
  8
HATCH
  6
CONTINUOUS
 62
     2
100
AcDbTrace
 10
4540.717940006152
 20
4834.745543211133
 30
0.0
 11
4176.599540442875
 21
4831.276400098941
 31
0.0
 12
4545.089186258779
 22
4816.414204141311
 32
0.0
 13
4545.089186258779
 23
4816.414204141311
 33
0.0
210
0.0
220
0.0
230
1.0
  0
SOLID
  5
562
330
460
100
AcDbEntity
  8
HATCH
  6
CONTINUOUS
 62
     2
100
AcDbTrace
 10
5601.5890755579
 20
4834.745543211173
 30
0.0
 11
4562.358591016572
 21
4834.745543211128
 31
0.0
 12
5604.112815758551
 22
4816.414204141352
 32
0.0
 13
5604.112815758551
 23
4816.414204141352
 33
0.0
210
0.0
220
0.0
230
1.0
  0
SOLID
  5
563
330
460
100
AcDbEntity
  8
HATCH
  6
CONTINUOUS
 62
     2
100
AcDbTrace
 10
4171.721448377691
 20
4849.352329905372
 30
0.0
 11
4176.599540442875
 21
4831.276400098941
 31
0.0
 12
4540.717940006152
 22
4834.745543211133
 32
0.0
 13
4540.717940006152
 23
4834.745543211133
 33
0.0
210
0.0
220
0.0
230
1.0
  0
SOLID
  5
564
330
460
100
AcDbEntity
  8
HATCH
  6
CONTINUOUS
 62
     2
100
AcDbTrace
 10
4559.458235642321
 20
4852.852635890695
 30
0.0
 11
4562.358591016572
 21
4834.745543211128
 31
0.0
 12
5601.5890755579
 22
4834.745543211173
 32
0.0
 13
5601.5890755579
 23
4834.745543211173
 33
0.0
210
0.0
220
0.0
230
1.0
  0
SOLID
  5
565
330
460
100
AcDbEntity
  8
HATCH
  6
CONTINUOUS
 62
     2
100
AcDbTrace
 10
4535.694377137945
 20
4852.852635890699
 30
0.0
 11
4171.721448377691
 21
4849.352329905372
 31
0.0
 12
4540.717940006152
 22
4834.745543211133
 32
0.0
 13
4540.717940006152
 23
4834.745543211133
 33
0.0
  0
SOLID
  5
566
330
460
100
AcDbEntity
  8
HATCH
  6
CONTINUOUS
 62
     2
100
AcDbTrace
 10
5598.688720183642
 20
4852.852635890741
 30
0.0
 11
4559.458235642321
 21
4852.852635890695
 31
0.0
 12
5601.5890755579
 22
4834.745543211173
 32
0.0
 13
5601.5890755579
 23
4834.745543211173
 33
0.0
210
0.0
220
0.0
230
1.0
  0
SOLID
  5
567
330
460
100
AcDbEntity
  8
HATCH
  6
CONTINUOUS
 62
     2
100
AcDbTrace
 10
4166.203310052865
 20
4867.181159008815
 30
0.0
 11
4171.721448377691
 21
4849.352329905372
 31
0.0
 12
4535.694377137945
 22
4852.852635890699
 32
0.0
 13
4535.694377137945
 23
4852.852635890699
 33
0.0
  0
SOLID
  5
568
330
460
100
AcDbEntity
  8
HATCH
  6
CONTINUOUS
 62
     2
100
AcDbTrace
 10
4556.186220302971
 20
4870.704546515902
 30
0.0
 11
4559.458235642321
 21
4852.852635890695
 31
0.0
 12
5598.688720183642
 22
4852.852635890741
 32
0.0
 13
5598.688720183642
 23
4852.852635890741
 33
0.0
210
0.0
220
0.0
230
1.0
  0
SOLID
  5
569
330
460
100
AcDbEntity
  8
HATCH
  6
CONTINUOUS
 62
     2
100
AcDbTrace
 10
4530.027080327044
 20
4870.704546515906
 30
0.0
 11
4166.203310052865
 21
4867.181159008815
 31
0.0
 12
4535.694377137945
 22
4852.852635890699
 32
0.0
 13
4535.694377137945
 23
4852.852635890699
 33
0.0
210
0.0
220
0.0
230
1.0
  0
SOLID
  5
56A
330
460
100
AcDbEntity
  8
HATCH
  6
CONTINUOUS
 62
     2
100
AcDbTrace
 10
5595.416704844287
 20
4870.70454651595
 30
0.0
 11
4556.186220302971
 21
4870.704546515902
 31
0.0
 12
5598.688720183642
 22
4852.852635890741
 32
0.0
 13
5598.688720183642
 23
4852.852635890741
 33
0.0
210
0.0
220
0.0
230
1.0
  0
SOLID
  5
56B
330
460
100
AcDbEntity
  8
HATCH
  6
CONTINUOUS
 62
     2
100
AcDbTrace
 10
4160.054473626262
 20
4884.73268397848
 30
0.0
 11
4166.203310052865
 21
4867.181159008815
 31
0.0
 12
4530.027080327044
 22
4870.704546515906
 32
0.0
 13
4530.027080327044
 23
4870.704546515906
 33
0.0
210
0.0
220
0.0
230
1.0
  0
SOLID
  5
56C
330
460
100
AcDbEntity
  8
HATCH
  6
CONTINUOUS
 62
     2
100
AcDbTrace
 10
4552.548135181842
 20
4888.270775396907
 30
0.0
 11
4556.186220302971
 21
4870.704546515902
 31
0.0
 12
5595.416704844287
 22
4870.70454651595
 32
0.0
 13
5595.416704844287
 23
4870.70454651595
 33
0.0
210
0.0
220
0.0
230
1.0
  0
SOLID
  5
56D
330
460
100
AcDbEntity
  8
HATCH
  6
CONTINUOUS
 62
     2
100
AcDbTrace
 10
4523.725732054987
 20
4888.270775396911
 30
0.0
 11
4160.054473626262
 21
4884.73268397848
 31
0.0
 12
4530.027080327044
 22
4870.704546515906
 32
0.0
 13
4530.027080327044
 23
4870.704546515906
 33
0.0
210
0.0
220
0.0
230
1.0
  0
SOLID
  5
56E
330
460
100
AcDbEntity
  8
HATCH
  6
CONTINUOUS
 62
     2
100
AcDbTrace
 10
5591.778619723153
 20
4888.270775396955
 30
0.0
 11
4552.548135181842
 21
4888.270775396907
 31
0.0
 12
5595.416704844287
 22
4870.70454651595
 32
0.0
 13
5595.416704844287
 23
4870.70454651595
 33
0.0
210
0.0
220
0.0
230
1.0
  0
SOLID
  5
56F
330
460
100
AcDbEntity
  8
HATCH
  6
CONTINUOUS
 62
     2
100
AcDbTrace
 10
4153.285355707651
 20
4901.977171158471
 30
0.0
 11
4160.054473626262
 21
4884.73268397848
 31
0.0
 12
4523.725732054987
 22
4888.270775396911
 32
0.0
 13
4523.725732054987
 23
4888.270775396911
 33
0.0
210
0.0
220
0.0
230
1.0
  0
SOLID
  5
570
330
460
100
AcDbEntity
  8
HATCH
  6
CONTINUOUS
 62
     2
100
AcDbTrace
 10
4548.550195886336
 20
4905.521310926332
 30
0.0
 11
4552.548135181842
 21
4888.270775396907
 31
0.0
 12
5591.778619723153
 22
4888.270775396955
 32
0.0
 13
5591.778619723153
 23
4888.270775396955
 33
0.0
210
0.0
220
0.0
230
1.0
  0
SOLID
  5
571
330
460
100
AcDbEntity
  8
HATCH
  6
CONTINUOUS
 62
     2
100
AcDbTrace
 10
4516.801098069591
 20
4905.521310926336
 30
0.0
 11
4153.285355707651
 21
4901.977171158471
 31
0.0
 12
4523.725732054987
 22
4888.270775396911
 32
0.0
 13
4523.725732054987
 23
4888.270775396911
 33
0.0
210
0.0
220
0.0
230
1.0
  0
SOLID
  5
572
330
460
100
AcDbEntity
  8
HATCH
  6
CONTINUOUS
 62
     2
100
AcDbTrace
 10
5587.780680427641
 20
4905.521310926381
 30
0.0
 11
4548.550195886336
 21
4905.521310926332
 31
0.0
 12
5591.778619723153
 22
4888.270775396955
 32
0.0
 13
5591.778619723153
 23
4888.270775396955
 33
0.0
210
0.0
220
0.0
230
1.0
  0
SOLID
  5
573
330
460
100
AcDbEntity
  8
HATCH
  6
CONTINUOUS
 62
     2
100
AcDbTrace
 10
4145.90742371216
 20
4918.885407038919
 30
0.0
 11
4153.285355707651
 21
4901.977171158471
 31
0.0
 12
4516.801098069591
 22
4905.521310926336
 32
0.0
 13
4516.801098069591
 23
4905.521310926336
 33
0.0
  0
SOLID
  5
574
330
460
100
AcDbEntity
  8
HATCH
  6
CONTINUOUS
 62
     2
100
AcDbTrace
 10
4544.199232828675
 20
4922.426680853596
 30
0.0
 11
4548.550195886336
 21
4905.521310926332
 31
0.0
 12
5587.780680427641
 22
4905.521310926381
 32
0.0
 13
5587.780680427641
 23
4905.521310926381
 33
0.0
  0
SOLID
  5
575
330
460
100
AcDbEntity
  8
HATCH
  6
CONTINUOUS
 62
     2
100
AcDbTrace
 10
4509.265008991866
 20
4922.426680853599
 30
0.0
 11
4145.90742371216
 21
4918.885407038919
 31
0.0
 12
4516.801098069591
 22
4905.521310926336
 32
0.0
 13
4516.801098069591
 23
4905.521310926336
 33
0.0
210
0.0
220
0.0
230
1.0
  0
SOLID
  5
576
330
460
100
AcDbEntity
  8
HATCH
  6
CONTINUOUS
 62
     2
100
AcDbTrace
 10
5583.429717369974
 20
4922.426680853646
 30
0.0
 11
4544.199232828675
 21
4922.426680853596
 31
0.0
 12
5587.780680427641
 22
4905.521310926381
 32
0.0
 13
5587.780680427641
 23
4905.521310926381
 33
0.0
210
0.0
220
0.0
230
1.0
  0
SOLID
  5
577
330
460
100
AcDbEntity
  8
HATCH
  6
CONTINUOUS
 62
     2
100
AcDbTrace
 10
4137.933176433572
 20
4935.428747745948
 30
0.0
 11
4145.90742371216
 21
4918.885407038919
 31
0.0
 12
4509.265008991866
 22
4922.426680853599
 32
0.0
 13
4509.265008991866
 23
4922.426680853599
 33
0.0
210
0.0
220
0.0
230
1.0
  0
SOLID
  5
578
330
460
100
AcDbEntity
  8
HATCH
  6
CONTINUOUS
 62
     2
100
AcDbTrace
 10
4539.502679556258
 20
4938.958002637758
 30
0.0
 11
4544.199232828675
 21
4922.426680853596
 31
0.0
 12
5583.429717369974
 22
4922.426680853646
 32
0.0
 13
5583.429717369974
 23
4922.426680853646
 33
0.0
  0
SOLID
  5
579
330
460
100
AcDbEntity
  8
HATCH
  6
CONTINUOUS
 62
     2
100
AcDbTrace
 10
4501.130340103584
 20
4938.958002637763
 30
0.0
 11
4137.933176433572
 21
4935.428747745948
 31
0.0
 12
4509.265008991866
 22
4922.426680853599
 32
0.0
 13
4509.265008991866
 23
4922.426680853599
 33
0.0
210
0.0
220
0.0
230
1.0
  0
SOLID
  5
57A
330
460
100
AcDbEntity
  8
HATCH
  6
CONTINUOUS
 62
     2
100
AcDbTrace
 10
5578.733164097551
 20
4938.95800263781
 30
0.0
 11
4539.502679556258
 21
4938.958002637758
 31
0.0
 12
5583.429717369974
 22
4922.426680853646
 32
0.0
 13
5583.429717369974
 23
4922.426680853646
 33
0.0
210
0.0
220
0.0
230
1.0
  0
SOLID
  5
57B
330
460
100
AcDbEntity
  8
HATCH
  6
CONTINUOUS
 62
     2
100
AcDbTrace
 10
4129.376122870394
 20
4951.579167566647
 30
0.0
 11
4137.933176433572
 21
4935.428747745948
 31
0.0
 12
4501.130340103584
 22
4938.958002637763
 32
0.0
 13
4501.130340103584
 23
4938.958002637763
 33
0.0
210
0.0
220
0.0
230
1.0
  0
SOLID
  5
57C
330
460
100
AcDbEntity
  8
HATCH
  6
CONTINUOUS
 62
     2
100
AcDbTrace
 10
4534.468560051567
 20
4955.08703279286
 30
0.0
 11
4539.502679556258
 21
4938.958002637758
 31
0.0
 12
5578.733164097551
 22
4938.95800263781
 32
0.0
 13
5578.733164097551
 23
4938.95800263781
 33
0.0
210
0.0
220
0.0
230
1.0
  0
SOLID
  5
57D
330
460
100
AcDbEntity
  8
HATCH
  6
CONTINUOUS
 62
     2
100
AcDbTrace
 10
4492.410989350085
 20
4955.087032792863
 30
0.0
 11
4129.376122870394
 21
4951.579167566647
 31
0.0
 12
4501.130340103584
 22
4938.958002637763
 32
0.0
 13
4501.130340103584
 23
4938.958002637763
 33
0.0
210
0.0
220
0.0
230
1.0
  0
SOLID
  5
57E
330
460
100
AcDbEntity
  8
HATCH
  6
CONTINUOUS
 62
     2
100
AcDbTrace
 10
5573.699044592855
 20
4955.08703279291
 30
0.0
 11
4534.468560051567
 21
4955.08703279286
 31
0.0
 12
5578.733164097551
 22
4938.95800263781
 32
0.0
 13
5578.733164097551
 23
4938.95800263781
 33
0.0
210
0.0
220
0.0
230
1.0
  0
SOLID
  5
57F
330
460
100
AcDbEntity
  8
HATCH
  6
CONTINUOUS
 62
     2
100
AcDbTrace
 10
4120.250759340559
 20
4967.309306426813
 30
0.0
 11
4129.376122870394
 21
4951.579167566647
 31
0.0
 12
4492.410989350085
 22
4955.087032792863
 32
0.0
 13
4492.410989350085
 23
4955.087032792863
 33
0.0
  0
SOLID
  5
580
330
460
100
AcDbEntity
  8
HATCH
  6
CONTINUOUS
 62
     2
100
AcDbTrace
 10
4529.105475023333
 20
4970.786215141434
 30
0.0
 11
4534.468560051567
 21
4955.08703279286
 31
0.0
 12
5573.699044592855
 22
4955.08703279291
 32
0.0
 13
5573.699044592855
 23
4955.08703279291
 33
0.0
210
0.0
220
0.0
230
1.0
  0
SOLID
  5
581
330
460
100
AcDbEntity
  8
HATCH
  6
CONTINUOUS
 62
     2
100
AcDbTrace
 10
4483.121853595869
 20
4970.786215141438
 30
0.0
 11
4120.250759340559
 21
4967.309306426813
 31
0.0
 12
4492.410989350085
 22
4955.087032792863
 32
0.0
 13
4492.410989350085
 23
4955.087032792863
 33
0.0
210
0.0
220
0.0
230
1.0
  0
SOLID
  5
582
330
460
100
AcDbEntity
  8
HATCH
  6
CONTINUOUS
 62
     2
100
AcDbTrace
 10
5568.335959564614
 20
4970.786215141487
 30
0.0
 11
4529.105475023333
 21
4970.786215141434
 31
0.0
 12
5573.699044592855
 22
4955.08703279291
 32
0.0
 13
5573.699044592855
 23
4955.08703279291
 33
0.0
210
0.0
220
0.0
230
1.0
  0
SOLID
  5
583
330
460
100
AcDbEntity
  8
HATCH
  6
CONTINUOUS
 62
     2
100
AcDbTrace
 10
4110.572544923525
 20
4982.592516241055
 30
0.0
 11
4120.250759340559
 21
4967.309306426813
 31
0.0
 12
4483.121853595869
 22
4970.786215141438
 32
0.0
 13
4483.121853595869
 23
4970.786215141438
 33
0.0
210
0.0
220
0.0
230
1.0
  0
SOLID
  5
584
330
460
100
AcDbEntity
  8
HATCH
  6
CONTINUOUS
 62
     2
100
AcDbTrace
 10
4523.422587212359
 20
4986.028727893791
 30
0.0
 11
4529.105475023333
 21
4970.786215141434
 31
0.0
 12
5568.335959564614
 22
4970.786215141487
 32
0.0
 13
5568.335959564614
 23
4970.786215141487
 33
0.0
210
0.0
220
0.0
230
1.0
  0
SOLID
  5
585
330
460
100
AcDbEntity
  8
HATCH
  6
CONTINUOUS
 62
     2
100
AcDbTrace
 10
4473.278803173548
 20
4986.028727893796
 30
0.0
 11
4110.572544923525
 21
4982.592516241055
 31
0.0
 12
4483.121853595869
 22
4970.786215141438
 32
0.0
 13
4483.121853595869
 23
4970.786215141438
 33
0.0
210
0.0
220
0.0
230
1.0
  0
SOLID
  5
586
330
460
100
AcDbEntity
  8
HATCH
  6
CONTINUOUS
 62
     2
100
AcDbTrace
 10
5562.653071753636
 20
4986.028727893844
 30
0.0
 11
4523.422587212359
 21
4986.028727893791
 31
0.0
 12
5568.335959564614
 22
4970.786215141487
 32
0.0
 13
5568.335959564614
 23
4970.786215141487
 33
0.0
210
0.0
220
0.0
230
1.0
  0
SOLID
  5
587
330
460
100
AcDbEntity
  8
HATCH
  6
CONTINUOUS
 62
     2
100
AcDbTrace
 10
4100.35787527139
 20
4997.402906056744
 30
0.0
 11
4110.572544923525
 21
4982.592516241055
 31
0.0
 12
4473.278803173548
 22
4986.028727893796
 32
0.0
 13
4473.278803173548
 23
4986.028727893796
 33
0.0
210
0.0
220
0.0
230
1.0
  0
SOLID
  5
588
330
460
100
AcDbEntity
  8
HATCH
  6
CONTINUOUS
 62
     2
100
AcDbTrace
 10
4517.429605737146
 20
5000.788529472577
 30
0.0
 11
4523.422587212359
 21
4986.028727893791
 31
0.0
 12
5562.653071753636
 22
4986.028727893844
 32
0.0
 13
5562.653071753636
 23
4986.028727893844
 33
0.0
210
0.0
220
0.0
230
1.0
  0
SOLID
  5
589
330
460
100
AcDbEntity
  8
HATCH
  6
CONTINUOUS
 62
     2
100
AcDbTrace
 10
4462.898654769659
 20
5000.788529472581
 30
0.0
 11
4100.35787527139
 21
4997.402906056744
 31
0.0
 12
4473.278803173548
 22
4986.028727893796
 32
0.0
 13
4473.278803173548
 23
4986.028727893796
 33
0.0
210
0.0
220
0.0
230
1.0
  0
SOLID
  5
58A
330
460
100
AcDbEntity
  8
HATCH
  6
CONTINUOUS
 62
     2
100
AcDbTrace
 10
5556.660090278416
 20
5000.78852947263
 30
0.0
 11
4517.429605737146
 21
5000.788529472577
 31
0.0
 12
5562.653071753636
 22
4986.028727893844
 32
0.0
 13
5562.653071753636
 23
4986.028727893844
 33
0.0
210
0.0
220
0.0
230
1.0
  0
SOLID
  5
58B
330
460
100
AcDbEntity
  8
HATCH
  6
CONTINUOUS
 62
     2
100
AcDbTrace
 10
4089.624054833373
 20
5011.715385915297
 30
0.0
 11
4100.35787527139
 21
4997.402906056744
 31
0.0
 12
4462.898654769659
 22
5000.788529472581
 32
0.0
 13
4462.898654769659
 23
5000.788529472581
 33
0.0
210
0.0
220
0.0
230
1.0
  0
SOLID
  5
58C
330
460
100
AcDbEntity
  8
HATCH
  6
CONTINUOUS
 62
     2
100
AcDbTrace
 10
4511.136769506014
 20
5015.040403004387
 30
0.0
 11
4517.429605737146
 21
5000.788529472577
 31
0.0
 12
5556.660090278416
 22
5000.78852947263
 32
0.0
 13
5556.660090278416
 23
5000.78852947263
 33
0.0
210
0.0
220
0.0
230
1.0
  0
SOLID
  5
58D
330
460
100
AcDbEntity
  8
HATCH
  6
CONTINUOUS
 62
     2
100
AcDbTrace
 10
4451.999142693624
 20
5015.040403004389
 30
0.0
 11
4089.624054833373
 21
5011.715385915297
 31
0.0
 12
4462.898654769659
 22
5000.788529472581
 32
0.0
 13
4462.898654769659
 23
5000.788529472581
 33
0.0
210
0.0
220
0.0
230
1.0
  0
SOLID
  5
58E
330
460
100
AcDbEntity
  8
HATCH
  6
CONTINUOUS
 62
     2
100
AcDbTrace
 10
5550.367254047278
 20
5015.040403004439
 30
0.0
 11
4511.136769506014
 21
5015.040403004387
 31
0.0
 12
5556.660090278416
 22
5000.78852947263
 32
0.0
 13
5556.660090278416
 23
5000.78852947263
 33
0.0
210
0.0
220
0.0
230
1.0
  0
SOLID
  5
58F
330
460
100
AcDbEntity
  8
HATCH
  6
CONTINUOUS
 62
     2
100
AcDbTrace
 10
4078.389267540723
 20
5025.505709356542
 30
0.0
 11
4089.624054833373
 21
5011.715385915297
 31
0.0
 12
4451.999142693624
 22
5015.040403004389
 32
0.0
 13
4451.999142693624
 23
5015.040403004389
 33
0.0
  0
SOLID
  5
590
330
460
100
AcDbEntity
  8
HATCH
  6
CONTINUOUS
 62
     2
100
AcDbTrace
 10
4504.5548297241
 20
5028.759999402358
 30
0.0
 11
4511.136769506014
 21
5015.040403004387
 31
0.0
 12
5550.367254047278
 22
5015.040403004439
 32
0.0
 13
5550.367254047278
 23
5015.040403004439
 33
0.0
210
0.0
220
0.0
230
1.0
  0
SOLID
  5
591
330
460
100
AcDbEntity
  8
HATCH
  6
CONTINUOUS
 62
     2
100
AcDbTrace
 10
4440.598888578991
 20
5028.759999402361
 30
0.0
 11
4078.389267540723
 21
5025.505709356542
 31
0.0
 12
4451.999142693624
 22
5015.040403004389
 32
0.0
 13
4451.999142693624
 23
5015.040403004389
 33
0.0
210
0.0
220
0.0
230
1.0
  0
SOLID
  5
592
330
460
100
AcDbEntity
  8
HATCH
  6
CONTINUOUS
 62
     2
100
AcDbTrace
 10
5543.78531426536
 20
5028.75999940241
 30
0.0
 11
4504.5548297241
 21
5028.759999402358
 31
0.0
 12
5550.367254047278
 22
5015.040403004439
 32
0.0
 13
5550.367254047278
 23
5015.040403004439
 33
0.0
210
0.0
220
0.0
230
1.0
  0
SOLID
  5
593
330
460
100
AcDbEntity
  8
HATCH
  6
CONTINUOUS
 62
     2
100
AcDbTrace
 10
4066.672546001719
 20
5038.750514494111
 30
0.0
 11
4078.389267540723
 21
5025.505709356542
 31
0.0
 12
4440.598888578991
 22
5028.759999402361
 32
0.0
 13
4440.598888578991
 23
5028.759999402361
 33
0.0
210
0.0
220
0.0
230
1.0
  0
SOLID
  5
594
330
460
100
AcDbEntity
  8
HATCH
  6
CONTINUOUS
 62
     2
100
AcDbTrace
 10
4497.695031525117
 20
5041.923878966187
 30
0.0
 11
4504.5548297241
 21
5028.759999402358
 31
0.0
 12
5543.78531426536
 22
5028.75999940241
 32
0.0
 13
5543.78531426536
 23
5028.75999940241
 33
0.0
210
0.0
220
0.0
230
1.0
  0
SOLID
  5
595
330
460
100
AcDbEntity
  8
HATCH
  6
CONTINUOUS
 62
     2
100
AcDbTrace
 10
4428.717369568681
 20
5041.923878966191
 30
0.0
 11
4066.672546001719
 21
5038.750514494111
 31
0.0
 12
4440.598888578991
 22
5028.759999402361
 32
0.0
 13
4440.598888578991
 23
5028.759999402361
 33
0.0
210
0.0
220
0.0
230
1.0
  0
SOLID
  5
596
330
460
100
AcDbEntity
  8
HATCH
  6
CONTINUOUS
 62
     2
100
AcDbTrace
 10
5536.925516066371
 20
5041.923878966239
 30
0.0
 11
4497.695031525117
 21
5041.923878966187
 31
0.0
 12
5543.78531426536
 22
5028.75999940241
 32
0.0
 13
5543.78531426536
 23
5028.75999940241
 33
0.0
  0
SOLID
  5
597
330
460
100
AcDbEntity
  8
HATCH
  6
CONTINUOUS
 62
     2
100
AcDbTrace
 10
4054.493739258941
 20
5051.427363592306
 30
0.0
 11
4066.672546001719
 21
5038.750514494111
 31
0.0
 12
4428.717369568681
 22
5041.923878966191
 32
0.0
 13
4428.717369568681
 23
5041.923878966191
 33
0.0
210
0.0
220
0.0
230
1.0
  0
SOLID
  5
598
330
460
100
AcDbEntity
  8
HATCH
  6
CONTINUOUS
 62
     2
100
AcDbTrace
 10
4490.569094759215
 20
5054.509551428458
 30
0.0
 11
4497.695031525117
 21
5041.923878966187
 31
0.0
 12
5536.925516066371
 22
5041.923878966239
 32
0.0
 13
5536.925516066371
 23
5041.923878966239
 33
0.0
210
0.0
220
0.0
230
1.0
  0
SOLID
  5
599
330
460
100
AcDbEntity
  8
HATCH
  6
CONTINUOUS
 62
     2
100
AcDbTrace
 10
4416.374885038613
 20
5054.509551428463
 30
0.0
 11
4054.493739258941
 21
5051.427363592306
 31
0.0
 12
4428.717369568681
 22
5041.923878966191
 32
0.0
 13
4428.717369568681
 23
5041.923878966191
 33
0.0
210
0.0
220
0.0
230
1.0
  0
SOLID
  5
59A
330
460
100
AcDbEntity
  8
HATCH
  6
CONTINUOUS
 62
     2
100
AcDbTrace
 10
5529.799579300463
 20
5054.50955142851
 30
0.0
 11
4490.569094759215
 21
5054.509551428458
 31
0.0
 12
5536.925516066371
 22
5041.923878966239
 32
0.0
 13
5536.925516066371
 23
5041.923878966239
 33
0.0
  0
SOLID
  5
59B
330
460
100
AcDbEntity
  8
HATCH
  6
CONTINUOUS
 62
     2
100
AcDbTrace
 10
4041.873479163445
 20
5063.514781077373
 30
0.0
 11
4054.493739258941
 21
5051.427363592306
 31
0.0
 12
4416.374885038613
 22
5054.509551428463
 32
0.0
 13
4416.374885038613
 23
5054.509551428463
 33
0.0
210
0.0
220
0.0
230
1.0
  0
SOLID
  5
59C
330
460
100
AcDbEntity
  8
HATCH
  6
CONTINUOUS
 62
     2
100
AcDbTrace
 10
4483.189193969823
 20
5066.495514378889
 30
0.0
 11
4490.569094759215
 21
5054.509551428458
 31
0.0
 12
5529.799579300463
 22
5054.50955142851
 32
0.0
 13
5529.799579300463
 23
5054.50955142851
 33
0.0
210
0.0
220
0.0
230
1.0
  0
SOLID
  5
59D
330
460
100
AcDbEntity
  8
HATCH
  6
CONTINUOUS
 62
     2
100
AcDbTrace
 10
4403.592521916568
 20
5066.495514378893
 30
0.0
 11
4041.873479163445
 21
5063.514781077373
 31
0.0
 12
4416.374885038613
 22
5054.509551428463
 32
0.0
 13
4416.374885038613
 23
5054.509551428463
 33
0.0
210
0.0
220
0.0
230
1.0
  0
SOLID
  5
59E
330
460
100
AcDbEntity
  8
HATCH
  6
CONTINUOUS
 62
     2
100
AcDbTrace
 10
5522.419678511067
 20
5066.495514378941
 30
0.0
 11
4483.189193969823
 21
5066.495514378889
 31
0.0
 12
5529.799579300463
 22
5054.50955142851
 32
0.0
 13
5529.799579300463
 23
5054.50955142851
 33
0.0
210
0.0
220
0.0
230
1.0
  0
SOLID
  5
59F
330
460
100
AcDbEntity
  8
HATCH
  6
CONTINUOUS
 62
     2
100
AcDbTrace
 10
4028.833145422786
 20
5074.992289918808
 30
0.0
 11
4041.873479163445
 21
5063.514781077373
 31
0.0
 12
4403.592521916568
 22
5066.495514378893
 32
0.0
 13
4403.592521916568
 23
5066.495514378893
 33
0.0
210
0.0
220
0.0
230
1.0
  0
SOLID
  5
5A0
330
460
100
AcDbEntity
  8
HATCH
  6
CONTINUOUS
 62
     2
100
AcDbTrace
 10
4475.567937593647
 20
5077.861290000839
 30
0.0
 11
4483.189193969823
 21
5066.495514378889
 31
0.0
 12
5522.419678511067
 22
5066.495514378941
 32
0.0
 13
5522.419678511067
 23
5066.495514378941
 33
0.0
210
0.0
220
0.0
230
1.0
  0
SOLID
  5
5A1
330
460
100
AcDbEntity
  8
HATCH
  6
CONTINUOUS
 62
     2
100
AcDbTrace
 10
4390.392118655522
 20
5077.861290000842
 30
0.0
 11
4028.833145422786
 21
5074.992289918808
 31
0.0
 12
4403.592521916568
 22
5066.495514378893
 32
0.0
 13
4403.592521916568
 23
5066.495514378893
 33
0.0
  0
SOLID
  5
5A2
330
460
100
AcDbEntity
  8
HATCH
  6
CONTINUOUS
 62
     2
100
AcDbTrace
 10
5514.798422134884
 20
5077.861290000889
 30
0.0
 11
4475.567937593647
 21
5077.861290000839
 31
0.0
 12
5522.419678511067
 22
5066.495514378941
 32
0.0
 13
5522.419678511067
 23
5066.495514378941
 33
0.0
210
0.0
220
0.0
230
1.0
  0
SOLID
  5
5A3
330
460
100
AcDbEntity
  8
HATCH
  6
CONTINUOUS
 62
     2
100
AcDbTrace
 10
4015.394829382127
 20
5085.840446319049
 30
0.0
 11
4028.833145422786
 21
5074.992289918808
 31
0.0
 12
4390.392118655522
 22
5077.861290000842
 32
0.0
 13
4390.392118655522
 23
5077.861290000842
 33
0.0
210
0.0
220
0.0
230
1.0
  0
SOLID
  5
5A4
330
460
100
AcDbEntity
  8
HATCH
  6
CONTINUOUS
 62
     2
100
AcDbTrace
 10
4467.718346419361
 20
5088.587460057313
 30
0.0
 11
4475.567937593647
 21
5077.861290000839
 31
0.0
 12
5514.798422134884
 22
5077.861290000889
 32
0.0
 13
5514.798422134884
 23
5077.861290000889
 33
0.0
210
0.0
220
0.0
230
1.0
  0
SOLID
  5
5A5
330
460
100
AcDbEntity
  8
HATCH
  6
CONTINUOUS
 62
     2
100
AcDbTrace
 10
4376.796227923012
 20
5088.587460057316
 30
0.0
 11
4015.394829382127
 21
5085.840446319049
 31
0.0
 12
4390.392118655522
 22
5077.861290000842
 32
0.0
 13
4390.392118655522
 23
5077.861290000842
 33
0.0
210
0.0
220
0.0
230
1.0
  0
SOLID
  5
5A6
330
460
100
AcDbEntity
  8
HATCH
  6
CONTINUOUS
 62
     2
100
AcDbTrace
 10
5506.948830960593
 20
5088.587460057363
 30
0.0
 11
4467.718346419361
 21
5088.587460057313
 31
0.0
 12
5514.798422134884
 22
5077.861290000889
 32
0.0
 13
5514.798422134884
 23
5077.861290000889
 33
0.0
210
0.0
220
0.0
230
1.0
  0
SOLID
  5
5A7
330
460
100
AcDbEntity
  8
HATCH
  6
CONTINUOUS
 62
     2
100
AcDbTrace
 10
4001.581296599769
 20
5096.040872652782
 30
0.0
 11
4015.394829382127
 21
5085.840446319049
 31
0.0
 12
4376.796227923012
 22
5088.587460057316
 32
0.0
 13
4376.796227923012
 23
5088.587460057316
 33
0.0
210
0.0
220
0.0
230
1.0
  0
SOLID
  5
5A8
330
460
100
AcDbEntity
  8
HATCH
  6
CONTINUOUS
 62
     2
100
AcDbTrace
 10
4459.653831341813
 20
5098.655699066697
 30
0.0
 11
4467.718346419361
 21
5088.587460057313
 31
0.0
 12
5506.948830960593
 22
5088.587460057363
 32
0.0
 13
5506.948830960593
 23
5088.587460057363
 33
0.0
210
0.0
220
0.0
230
1.0
  0
SOLID
  5
5A9
330
460
100
AcDbEntity
  8
HATCH
  6
CONTINUOUS
 62
     2
100
AcDbTrace
 10
4362.828078070292
 20
5098.655699066701
 30
0.0
 11
4001.581296599769
 21
5096.040872652782
 31
0.0
 12
4376.796227923012
 22
5088.587460057316
 32
0.0
 13
4376.796227923012
 23
5088.587460057316
 33
0.0
210
0.0
220
0.0
230
1.0
  0
SOLID
  5
5AA
330
460
100
AcDbEntity
  8
HATCH
  6
CONTINUOUS
 62
     2
100
AcDbTrace
 10
5498.88431588304
 20
5098.655699066746
 30
0.0
 11
4459.653831341813
 21
5098.655699066697
 31
0.0
 12
5506.948830960593
 22
5088.587460057363
 32
0.0
 13
5506.948830960593
 23
5088.587460057363
 33
0.0
210
0.0
220
0.0
230
1.0
  0
SOLID
  5
5AB
330
460
100
AcDbEntity
  8
HATCH
  6
CONTINUOUS
 62
     2
100
AcDbTrace
 10
3987.415948280519
 20
5105.576288600086
 30
0.0
 11
4001.581296599769
 21
5096.040872652782
 31
0.0
 12
4362.828078070292
 22
5098.655699066701
 32
0.0
 13
4362.828078070292
 23
5098.655699066701
 33
0.0
210
0.0
220
0.0
230
1.0
  0
SOLID
  5
5AC
330
460
100
AcDbEntity
  8
HATCH
  6
CONTINUOUS
 62
     2
100
AcDbTrace
 10
4451.388170449734
 20
5108.048805611536
 30
0.0
 11
4459.653831341813
 21
5098.655699066697
 31
0.0
 12
5498.88431588304
 22
5098.655699066746
 32
0.0
 13
5498.88431588304
 23
5098.655699066746
 33
0.0
210
0.0
220
0.0
230
1.0
  0
SOLID
  5
5AD
330
460
100
AcDbEntity
  8
HATCH
  6
CONTINUOUS
 62
     2
100
AcDbTrace
 10
4348.511533447074
 20
5108.04880561154
 30
0.0
 11
3987.415948280519
 21
5105.576288600086
 31
0.0
 12
4362.828078070292
 22
5098.655699066701
 32
0.0
 13
4362.828078070292
 23
5098.655699066701
 33
0.0
210
0.0
220
0.0
230
1.0
  0
SOLID
  5
5AE
330
460
100
AcDbEntity
  8
HATCH
  6
CONTINUOUS
 62
     2
100
AcDbTrace
 10
5490.618654990956
 20
5108.048805611584
 30
0.0
 11
4451.388170449734
 21
5108.048805611536
 31
0.0
 12
5498.88431588304
 22
5098.655699066746
 32
0.0
 13
5498.88431588304
 23
5098.655699066746
 33
0.0
210
0.0
220
0.0
230
1.0
  0
SOLID
  5
5AF
330
460
100
AcDbEntity
  8
HATCH
  6
CONTINUOUS
 62
     2
100
AcDbTrace
 10
3972.92278163222
 20
5114.430540420637
 30
0.0
 11
3987.415948280519
 21
5105.576288600086
 31
0.0
 12
4348.511533447074
 22
5108.04880561154
 32
0.0
 13
4348.511533447074
 23
5108.04880561154
 33
0.0
210
0.0
220
0.0
230
1.0
  0
SOLID
  5
5B0
330
460
100
AcDbEntity
  8
HATCH
  6
CONTINUOUS
 62
     2
100
AcDbTrace
 10
4442.935485486103
 20
5116.750731726863
 30
0.0
 11
4451.388170449734
 21
5108.048805611536
 31
0.0
 12
5490.618654990956
 22
5108.048805611584
 32
0.0
 13
5490.618654990956
 23
5108.048805611584
 33
0.0
210
0.0
220
0.0
230
1.0
  0
SOLID
  5
5B1
330
460
100
AcDbEntity
  8
HATCH
  6
CONTINUOUS
 62
     2
100
AcDbTrace
 10
4333.871053629692
 20
5116.750731726867
 30
0.0
 11
3972.92278163222
 21
5114.430540420637
 31
0.0
 12
4348.511533447074
 22
5108.04880561154
 32
0.0
 13
4348.511533447074
 23
5108.04880561154
 33
0.0
210
0.0
220
0.0
230
1.0
  0
SOLID
  5
5B2
330
460
100
AcDbEntity
  8
HATCH
  6
CONTINUOUS
 62
     2
100
AcDbTrace
 10
5482.16597002732
 20
5116.750731726909
 30
0.0
 11
4442.935485486103
 21
5116.750731726863
 31
0.0
 12
5490.618654990956
 22
5108.048805611584
 32
0.0
 13
5490.618654990956
 23
5108.048805611584
 33
0.0
210
0.0
220
0.0
230
1.0
  0
SOLID
  5
5B3
330
460
100
AcDbEntity
  8
HATCH
  6
CONTINUOUS
 62
     2
100
AcDbTrace
 10
3958.969400809331
 20
5122.146811026273
 30
0.0
 11
3972.92278163222
 21
5114.430540420637
 31
0.0
 12
4333.871053629692
 22
5116.750731726867
 32
0.0
 13
4333.871053629692
 23
5116.750731726867
 33
0.0
210
0.0
220
0.0
230
1.0
  0
SOLID
  5
5B4
330
460
100
AcDbEntity
  8
HATCH
  6
CONTINUOUS
 62
     2
100
AcDbTrace
 10
4434.310217721392
 20
5124.74661031788
 30
0.0
 11
4442.935485486103
 21
5116.750731726863
 31
0.0
 12
5482.16597002732
 22
5116.750731726909
 32
0.0
 13
5482.16597002732
 23
5116.750731726909
 33
0.0
210
0.0
220
0.0
230
1.0
  0
SOLID
  5
5B5
330
460
100
AcDbEntity
  8
HATCH
  6
CONTINUOUS
 62
     2
100
AcDbTrace
 10
4318.931651632325
 20
5124.746610317883
 30
0.0
 11
3958.969400809331
 21
5122.146811026273
 31
0.0
 12
4333.871053629692
 22
5116.750731726867
 32
0.0
 13
4333.871053629692
 23
5116.750731726867
 33
0.0
210
0.0
220
0.0
230
1.0
  0
SOLID
  5
5B6
330
460
100
AcDbEntity
  8
HATCH
  6
CONTINUOUS
 62
     2
100
AcDbTrace
 10
5473.540702262605
 20
5124.746610317925
 30
0.0
 11
4434.310217721392
 21
5124.74661031788
 31
0.0
 12
5482.16597002732
 22
5116.750731726909
 32
0.0
 13
5482.16597002732
 23
5116.750731726909
 33
0.0
210
0.0
220
0.0
230
1.0
  0
SOLID
  5
5B7
330
460
100
AcDbEntity
  8
HATCH
  6
CONTINUOUS
 62
     2
100
AcDbTrace
 10
3944.767072565086
 20
5129.231661801084
 30
0.0
 11
3958.969400809331
 21
5122.146811026273
 31
0.0
 12
4318.931651632325
 22
5124.746610317883
 32
0.0
 13
4318.931651632325
 23
5124.746610317883
 33
0.0
210
0.0
220
0.0
230
1.0
  0
SOLID
  5
5B8
330
460
100
AcDbEntity
  8
HATCH
  6
CONTINUOUS
 62
     2
100
AcDbTrace
 10
4425.527103280891
 20
5132.022780560142
 30
0.0
 11
4434.310217721392
 21
5124.74661031788
 31
0.0
 12
5473.540702262605
 22
5124.746610317925
 32
0.0
 13
5473.540702262605
 23
5124.746610317925
 33
0.0
210
0.0
220
0.0
230
1.0
  0
SOLID
  5
5B9
330
460
100
AcDbEntity
  8
HATCH
  6
CONTINUOUS
 62
     2
100
AcDbTrace
 10
4303.718851172685
 20
5132.022780560146
 30
0.0
 11
3944.767072565086
 21
5129.231661801084
 31
0.0
 12
4318.931651632325
 22
5124.746610317883
 32
0.0
 13
4318.931651632325
 23
5124.746610317883
 33
0.0
210
0.0
220
0.0
230
1.0
  0
SOLID
  5
5BA
330
460
100
AcDbEntity
  8
HATCH
  6
CONTINUOUS
 62
     2
100
AcDbTrace
 10
5464.757587822099
 20
5132.022780560185
 30
0.0
 11
4425.527103280891
 21
5132.022780560142
 31
0.0
 12
5473.540702262605
 22
5124.746610317925
 32
0.0
 13
5473.540702262605
 23
5124.746610317925
 33
0.0
210
0.0
220
0.0
230
1.0
  0
SOLID
  5
5BB
330
460
100
AcDbEntity
  8
HATCH
  6
CONTINUOUS
 62
     2
100
AcDbTrace
 10
3930.337216951216
 20
5135.674407323105
 30
0.0
 11
3944.767072565086
 21
5129.231661801084
 31
0.0
 12
4303.718851172685
 22
5132.022780560146
 32
0.0
 13
4303.718851172685
 23
5132.022780560146
 33
0.0
210
0.0
220
0.0
230
1.0
  0
SOLID
  5
5BC
330
460
100
AcDbEntity
  8
HATCH
  6
CONTINUOUS
 62
     2
100
AcDbTrace
 10
4416.601147968289
 20
5138.566811238848
 30
0.0
 11
4425.527103280891
 21
5132.022780560142
 31
0.0
 12
5464.757587822099
 22
5132.022780560185
 32
0.0
 13
5464.757587822099
 23
5132.022780560185
 33
0.0
210
0.0
220
0.0
230
1.0
  0
SOLID
  5
5BD
330
460
100
AcDbEntity
  8
HATCH
  6
CONTINUOUS
 62
     2
100
AcDbTrace
 10
4288.258643065167
 20
5138.566811238852
 30
0.0
 11
3930.337216951216
 21
5135.674407323105
 31
0.0
 12
4303.718851172685
 22
5132.022780560146
 32
0.0
 13
4303.718851172685
 23
5132.022780560146
 33
0.0
210
0.0
220
0.0
230
1.0
  0
SOLID
  5
5BE
330
460
100
AcDbEntity
  8
HATCH
  6
CONTINUOUS
 62
     2
100
AcDbTrace
 10
5455.831632509494
 20
5138.566811238888
 30
0.0
 11
4416.601147968289
 21
5138.566811238848
 31
0.0
 12
5464.757587822099
 22
5132.022780560185
 32
0.0
 13
5464.757587822099
 23
5132.022780560185
 33
0.0
  0
SOLID
  5
5BF
330
460
100
AcDbEntity
  8
HATCH
  6
CONTINUOUS
 62
     2
100
AcDbTrace
 10
3915.701597177836
 20
5141.465330598059
 30
0.0
 11
3930.337216951216
 21
5135.674407323105
 31
0.0
 12
4288.258643065167
 22
5138.566811238852
 32
0.0
 13
4288.258643065167
 23
5138.566811238852
 33
0.0
210
0.0
220
0.0
230
1.0
  0
SOLID
  5
5C0
330
460
100
AcDbEntity
  8
HATCH
  6
CONTINUOUS
 62
     2
100
AcDbTrace
 10
4407.547601628507
 20
5144.367521987353
 30
0.0
 11
4416.601147968289
 21
5138.566811238848
 31
0.0
 12
5455.831632509494
 22
5138.566811238888
 32
0.0
 13
5455.831632509494
 23
5138.566811238888
 33
0.0
210
0.0
220
0.0
230
1.0
  0
SOLID
  5
5C1
330
460
100
AcDbEntity
  8
HATCH
  6
CONTINUOUS
 62
     2
100
AcDbTrace
 10
4272.577440815985
 20
5144.367521987357
 30
0.0
 11
3915.701597177836
 21
5141.465330598059
 31
0.0
 12
4288.258643065167
 22
5138.566811238852
 32
0.0
 13
4288.258643065167
 23
5138.566811238852
 33
0.0
210
0.0
220
0.0
230
1.0
  0
SOLID
  5
5C2
330
460
100
AcDbEntity
  8
HATCH
  6
CONTINUOUS
 62
     2
100
AcDbTrace
 10
5446.778086169707
 20
5144.367521987391
 30
0.0
 11
4407.547601628507
 21
5144.367521987353
 31
0.0
 12
5455.831632509494
 22
5138.566811238888
 32
0.0
 13
5455.831632509494
 23
5138.566811238888
 33
0.0
210
0.0
220
0.0
230
1.0
  0
SOLID
  5
5C3
330
460
100
AcDbEntity
  8
HATCH
  6
CONTINUOUS
 62
     2
100
AcDbTrace
 10
3900.882286790014
 20
5146.595697714574
 30
0.0
 11
3915.701597177836
 21
5141.465330598059
 31
0.0
 12
4272.577440815985
 22
5144.367521987357
 32
0.0
 13
4272.577440815985
 23
5144.367521987357
 33
0.0
210
0.0
220
0.0
230
1.0
  0
SOLID
  5
5C4
330
460
100
AcDbEntity
  8
HATCH
  6
CONTINUOUS
 62
     2
100
AcDbTrace
 10
4398.381932093598
 20
5149.41500238865
 30
0.0
 11
4407.547601628507
 21
5144.367521987353
 31
0.0
 12
5446.778086169707
 22
5144.367521987391
 32
0.0
 13
5446.778086169707
 23
5144.367521987391
 33
0.0
  0
SOLID
  5
5C5
330
460
100
AcDbEntity
  8
HATCH
  6
CONTINUOUS
 62
     2
100
AcDbTrace
 10
4256.702035496135
 20
5149.415002388654
 30
0.0
 11
3900.882286790014
 21
5146.595697714574
 31
0.0
 12
4272.577440815985
 22
5144.367521987357
 32
0.0
 13
4272.577440815985
 23
5144.367521987357
 33
0.0
  0
SOLID
  5
5C6
330
460
100
AcDbEntity
  8
HATCH
  6
CONTINUOUS
 62
     2
100
AcDbTrace
 10
5437.612416634795
 20
5149.415002388685
 30
0.0
 11
4398.381932093598
 21
5149.41500238865
 31
0.0
 12
5446.778086169707
 22
5144.367521987391
 32
0.0
 13
5446.778086169707
 23
5144.367521987391
 33
0.0
210
0.0
220
0.0
230
1.0
  0
SOLID
  5
5C7
330
460
100
AcDbEntity
  8
HATCH
  6
CONTINUOUS
 62
     2
100
AcDbTrace
 10
3885.901636376303
 20
5151.057771016747
 30
0.0
 11
3900.882286790014
 21
5146.595697714574
 31
0.0
 12
4256.702035496135
 22
5149.415002388654
 32
0.0
 13
4256.702035496135
 23
5149.415002388654
 33
0.0
  0
SOLID
  5
5C8
330
460
100
AcDbEntity
  8
HATCH
  6
CONTINUOUS
 62
     2
100
AcDbTrace
 10
4389.119798756211
 20
5153.700628907142
 30
0.0
 11
4398.381932093598
 21
5149.41500238865
 31
0.0
 12
5437.612416634795
 22
5149.415002388685
 32
0.0
 13
5437.612416634795
 23
5149.415002388685
 33
0.0
210
0.0
220
0.0
230
1.0
  0
SOLID
  5
5C9
330
460
100
AcDbEntity
  8
HATCH
  6
CONTINUOUS
 62
     2
100
AcDbTrace
 10
4240.659549969302
 20
5153.700628907145
 30
0.0
 11
3885.901636376303
 21
5151.057771016747
 31
0.0
 12
4256.702035496135
 22
5149.415002388654
 32
0.0
 13
4256.702035496135
 23
5149.415002388654
 33
0.0
  0
SOLID
  5
5CA
330
460
100
AcDbEntity
  8
HATCH
  6
CONTINUOUS
 62
     2
100
AcDbTrace
 10
5428.350283297405
 20
5153.700628907176
 30
0.0
 11
4389.119798756211
 21
5153.700628907142
 31
0.0
 12
5437.612416634795
 22
5149.415002388685
 32
0.0
 13
5437.612416634795
 23
5149.415002388685
 33
0.0
210
0.0
220
0.0
230
1.0
  0
SOLID
  5
5CB
330
460
100
AcDbEntity
  8
HATCH
  6
CONTINUOUS
 62
     2
100
AcDbTrace
 10
3870.782239859423
 20
5154.844820774119
 30
0.0
 11
3885.901636376303
 21
5151.057771016747
 31
0.0
 12
4240.659549969302
 22
5153.700628907145
 32
0.0
 13
4240.659549969302
 23
5153.700628907145
 33
0.0
210
0.0
220
0.0
230
1.0
  0
SOLID
  5
5CC
330
460
100
AcDbEntity
  8
HATCH
  6
CONTINUOUS
 62
     2
100
AcDbTrace
 10
4379.777025815786
 20
5157.217079621812
 30
0.0
 11
4389.119798756211
 21
5153.700628907142
 31
0.0
 12
5428.350283297405
 22
5153.700628907176
 32
0.0
 13
5428.350283297405
 23
5153.700628907176
 33
0.0
210
0.0
220
0.0
230
1.0
  0
SOLID
  5
5CD
330
460
100
AcDbEntity
  8
HATCH
  6
CONTINUOUS
 62
     2
100
AcDbTrace
 10
4224.477392552905
 20
5157.217079621815
 30
0.0
 11
3870.782239859423
 21
5154.844820774119
 31
0.0
 12
4240.659549969302
 22
5153.700628907145
 32
0.0
 13
4240.659549969302
 23
5153.700628907145
 33
0.0
210
0.0
220
0.0
230
1.0
  0
SOLID
  5
5CE
330
460
100
AcDbEntity
  8
HATCH
  6
CONTINUOUS
 62
     2
100
AcDbTrace
 10
5419.007510356975
 20
5157.217079621844
 30
0.0
 11
4379.777025815786
 21
5157.217079621812
 31
0.0
 12
5428.350283297405
 22
5153.700628907176
 32
0.0
 13
5428.350283297405
 23
5153.700628907176
 33
0.0
210
0.0
220
0.0
230
1.0
  0
SOLID
  5
5CF
330
460
100
AcDbEntity
  8
HATCH
  6
CONTINUOUS
 62
     2
100
AcDbTrace
 10
3855.546900419943
 20
5157.951135331509
 30
0.0
 11
3870.782239859423
 21
5154.844820774119
 31
0.0
 12
4224.477392552905
 22
5157.217079621815
 32
0.0
 13
4224.477392552905
 23
5157.217079621815
 33
0.0
210
0.0
220
0.0
230
1.0
  0
SOLID
  5
5D0
330
460
100
AcDbEntity
  8
HATCH
  6
CONTINUOUS
 62
     2
100
AcDbTrace
 10
4370.369575243168
 20
5159.958346735601
 30
0.0
 11
4379.777025815786
 21
5157.217079621812
 31
0.0
 12
5419.007510356975
 22
5157.217079621844
 32
0.0
 13
5419.007510356975
 23
5157.217079621844
 33
0.0
210
0.0
220
0.0
230
1.0
  0
SOLID
  5
5D1
330
460
100
AcDbEntity
  8
HATCH
  6
CONTINUOUS
 62
     2
100
AcDbTrace
 10
4208.183210191435
 20
5159.958346735606
 30
0.0
 11
3855.546900419943
 21
5157.951135331509
 31
0.0
 12
4224.477392552905
 22
5157.217079621815
 32
0.0
 13
4224.477392552905
 23
5157.217079621815
 33
0.0
210
0.0
220
0.0
230
1.0
  0
SOLID
  5
5D2
330
460
100
AcDbEntity
  8
HATCH
  6
CONTINUOUS
 62
     2
100
AcDbTrace
 10
5409.600059784354
 20
5159.95834673563
 30
0.0
 11
4370.369575243168
 21
5159.958346735601
 31
0.0
 12
5419.007510356975
 22
5157.217079621844
 32
0.0
 13
5419.007510356975
 23
5157.217079621844
 33
0.0
210
0.0
220
0.0
230
1.0
  0
SOLID
  5
5D3
330
460
100
AcDbEntity
  8
HATCH
  6
CONTINUOUS
 62
     2
100
AcDbTrace
 10
3840.218596104369
 20
5160.372029723373
 30
0.0
 11
3855.546900419943
 21
5157.951135331509
 31
0.0
 12
4208.183210191435
 22
5159.958346735606
 32
0.0
 13
4208.183210191435
 23
5159.958346735606
 33
0.0
210
0.0
220
0.0
230
1.0
  0
SOLID
  5
5D4
330
460
100
AcDbEntity
  8
HATCH
  6
CONTINUOUS
 62
     2
100
AcDbTrace
 10
4360.913519509856
 20
5161.919746839629
 30
0.0
 11
4370.369575243168
 21
5159.958346735601
 31
0.0
 12
5409.600059784354
 22
5159.95834673563
 32
0.0
 13
5409.600059784354
 23
5159.95834673563
 33
0.0
210
0.0
220
0.0
230
1.0
  0
SOLID
  5
5D5
330
460
100
AcDbEntity
  8
HATCH
  6
CONTINUOUS
 62
     2
100
AcDbTrace
 10
4191.804841222135
 20
5161.919746839634
 30
0.0
 11
3840.218596104369
 21
5160.372029723373
 31
0.0
 12
4208.183210191435
 22
5159.958346735606
 32
0.0
 13
4208.183210191435
 23
5159.958346735606
 33
0.0
210
0.0
220
0.0
230
1.0
  0
SOLID
  5
5D6
330
460
100
AcDbEntity
  8
HATCH
  6
CONTINUOUS
 62
     2
100
AcDbTrace
 10
5400.144004051039
 20
5161.919746839656
 30
0.0
 11
4360.913519509856
 21
5161.919746839629
 31
0.0
 12
5409.600059784354
 22
5159.95834673563
 32
0.0
 13
5409.600059784354
 23
5159.95834673563
 33
0.0
210
0.0
220
0.0
230
1.0
  0
SOLID
  5
5D7
330
460
100
AcDbEntity
  8
HATCH
  6
CONTINUOUS
 62
     2
100
AcDbTrace
 10
3824.820445169488
 20
5162.103852739696
 30
0.0
 11
3840.218596104369
 21
5160.372029723373
 31
0.0
 12
4191.804841222135
 22
5161.919746839634
 32
0.0
 13
4191.804841222135
 23
5161.919746839634
 33
0.0
  0
SOLID
  5
5D8
330
460
100
AcDbEntity
  8
HATCH
  6
CONTINUOUS
 62
     2
100
AcDbTrace
 10
4351.425014128447
 20
5163.09792891472
 30
0.0
 11
4360.913519509856
 21
5161.919746839629
 31
0.0
 12
5400.144004051039
 22
5161.919746839656
 32
0.0
 13
5400.144004051039
 23
5161.919746839656
 33
0.0
210
0.0
220
0.0
230
1.0
  0
SOLID
  5
5D9
330
460
100
AcDbEntity
  8
HATCH
  6
CONTINUOUS
 62
     2
100
AcDbTrace
 10
4175.370267813644
 20
5163.097928914726
 30
0.0
 11
3824.820445169488
 21
5162.103852739696
 31
0.0
 12
4191.804841222135
 22
5161.919746839634
 32
0.0
 13
4191.804841222135
 23
5161.919746839634
 33
0.0
210
0.0
220
0.0
230
1.0
  0
SOLID
  5
5DA
330
460
100
AcDbEntity
  8
HATCH
  6
CONTINUOUS
 62
     2
100
AcDbTrace
 10
5390.655498669628
 20
5163.097928914744
 30
0.0
 11
4351.425014128447
 21
5163.09792891472
 31
0.0
 12
5400.144004051039
 22
5161.919746839656
 32
0.0
 13
5400.144004051039
 23
5161.919746839656
 33
0.0
210
0.0
220
0.0
230
1.0
  0
SOLID
  5
5DB
330
460
100
AcDbEntity
  8
HATCH
  6
CONTINUOUS
 62
     2
100
AcDbTrace
 10
3809.375671215252
 20
5163.143992432778
 30
0.0
 11
3824.820445169488
 21
5162.103852739696
 31
0.0
 12
4175.370267813644
 22
5163.097928914726
 32
0.0
 13
4175.370267813644
 23
5163.097928914726
 33
0.0
210
0.0
220
0.0
230
1.0
  0
SOLID
  5
5DC
330
460
100
AcDbEntity
  8
HATCH
  6
CONTINUOUS
 62
     2
100
AcDbTrace
 10
4341.920270051221
 20
5163.490880056563
 30
0.0
 11
4351.425014128447
 21
5163.09792891472
 31
0.0
 12
5390.655498669628
 22
5163.097928914744
 32
0.0
 13
5390.655498669628
 23
5163.097928914744
 33
0.0
210
0.0
220
0.0
230
1.0
  0
SOLID
  5
5DD
330
460
100
AcDbEntity
  8
HATCH
  6
CONTINUOUS
 62
     2
100
AcDbTrace
 10
3793.907568158782
 20
5163.49088005659
 30
0.0
 11
3809.375671215252
 21
5163.143992432778
 31
0.0
 12
4175.370267813644
 22
5163.097928914726
 32
0.0
 13
4175.370267813644
 23
5163.097928914726
 33
0.0
210
0.0
220
0.0
230
1.0
  0
SOLID
  5
5DE
330
460
100
AcDbEntity
  8
HATCH
  6
CONTINUOUS
 62
     2
100
AcDbTrace
 10
4158.90756815853
 20
5163.490880056611
 30
0.0
 11
3793.907568158782
 21
5163.49088005659
 31
0.0
 12
4175.370267813644
 22
5163.097928914726
 32
0.0
 13
4175.370267813644
 23
5163.097928914726
 33
0.0
210
0.0
220
0.0
230
1.0
  0
SOLID
  5
5DF
330
460
100
AcDbEntity
  8
HATCH
  6
CONTINUOUS
 62
     2
100
AcDbTrace
 10
5381.150754591971
 20
5163.490880056652
 30
0.0
 11
4341.920270051221
 21
5163.490880056563
 31
0.0
 12
5390.655498669628
 22
5163.097928914744
 32
0.0
 13
5390.655498669628
 23
5163.097928914744
 33
0.0
210
0.0
220
0.0
230
1.0
  0
SOLID
  5
5E0
330
460
100
AcDbEntity
  8
HATCH
  6
CONTINUOUS
 62
     2
100
AcDbTrace
 10
5631.150754592717
 20
4243.877503388648
 30
0.0
 11
5405.335878571492
 21
4243.490880056587
 31
0.0
 12
5631.150754592717
 22
4243.490880056571
 32
0.0
 13
5631.150754592717
 23
4243.490880056571
 33
0.0
210
0.0
220
0.0
230
1.0
  0
SOLID
  5
5E1
330
460
100
AcDbEntity
  8
HATCH
  6
CONTINUOUS
 62
     2
100
AcDbTrace
 10
5390.655498669808
 20
4243.883831198423
 30
0.0
 11
5405.335878571492
 21
4243.490880056587
 31
0.0
 12
5631.150754592717
 22
4243.877503388648
 32
0.0
 13
5631.150754592717
 23
4243.877503388648
 33
0.0
  0
SOLID
  5
5E2
330
460
100
AcDbEntity
  8
HATCH
  6
CONTINUOUS
 62
     2
100
AcDbTrace
 10
5631.150754592717
 20
4245.022283354867
 30
0.0
 11
5390.655498669808
 21
4243.883831198423
 31
0.0
 12
5631.150754592717
 22
4243.877503388648
 32
0.0
 13
5631.150754592717
 23
4243.877503388648
 33
0.0
210
0.0
220
0.0
230
1.0
  0
SOLID
  5
5E3
330
460
100
AcDbEntity
  8
HATCH
  6
CONTINUOUS
 62
     2
100
AcDbTrace
 10
5400.144004051219
 20
4245.062013273513
 30
0.0
 11
5390.655498669808
 21
4243.883831198423
 31
0.0
 12
5631.150754592717
 22
4245.022283354867
 32
0.0
 13
5631.150754592717
 23
4245.022283354867
 33
0.0
210
0.0
220
0.0
230
1.0
  0
SOLID
  5
5E4
330
460
100
AcDbEntity
  8
HATCH
  6
CONTINUOUS
 62
     2
100
AcDbTrace
 10
5631.150754592717
 20
4246.875968957224
 30
0.0
 11
5400.144004051219
 21
4245.062013273513
 31
0.0
 12
5631.150754592717
 22
4245.022283354867
 32
0.0
 13
5631.150754592717
 23
4245.022283354867
 33
0.0
210
0.0
220
0.0
230
1.0
  0
SOLID
  5
5E5
330
460
100
AcDbEntity
  8
HATCH
  6
CONTINUOUS
 62
     2
100
AcDbTrace
 10
5409.600059784533
 20
4247.023413377539
 30
0.0
 11
5400.144004051219
 21
4245.062013273513
 31
0.0
 12
5631.150754592717
 22
4246.875968957224
 32
0.0
 13
5631.150754592717
 23
4246.875968957224
 33
0.0
210
0.0
220
0.0
230
1.0
  0
SOLID
  5
5E6
330
460
100
AcDbEntity
  8
HATCH
  6
CONTINUOUS
 62
     2
100
AcDbTrace
 10
5631.150754592717
 20
4249.367617420489
 30
0.0
 11
5409.600059784533
 21
4247.023413377539
 31
0.0
 12
5631.150754592717
 22
4246.875968957224
 32
0.0
 13
5631.150754592717
 23
4246.875968957224
 33
0.0
210
0.0
220
0.0
230
1.0
  0
SOLID
  5
5E7
330
460
100
AcDbEntity
  8
HATCH
  6
CONTINUOUS
 62
     2
100
AcDbTrace
 10
5419.007510357153
 20
4249.764680491327
 30
0.0
 11
5409.600059784533
 21
4247.023413377539
 31
0.0
 12
5631.150754592717
 22
4249.367617420489
 32
0.0
 13
5631.150754592717
 23
4249.367617420489
 33
0.0
210
0.0
220
0.0
230
1.0
  0
SOLID
  5
5E8
330
460
100
AcDbEntity
  8
HATCH
  6
CONTINUOUS
 62
     2
100
AcDbTrace
 10
5631.150754592717
 20
4252.402391502272
 30
0.0
 11
5419.007510357153
 21
4249.764680491327
 31
0.0
 12
5631.150754592717
 22
4249.367617420489
 32
0.0
 13
5631.150754592717
 23
4249.367617420489
 33
0.0
210
0.0
220
0.0
230
1.0
  0
SOLID
  5
5E9
330
460
100
AcDbEntity
  8
HATCH
  6
CONTINUOUS
 62
     2
100
AcDbTrace
 10
5428.35028329758
 20
4253.281131205995
 30
0.0
 11
5419.007510357153
 21
4249.764680491327
 31
0.0
 12
5631.150754592717
 22
4252.402391502272
 32
0.0
 13
5631.150754592717
 23
4252.402391502272
 33
0.0
210
0.0
220
0.0
230
1.0
  0
SOLID
  5
5EA
330
460
100
AcDbEntity
  8
HATCH
  6
CONTINUOUS
 62
     2
100
AcDbTrace
 10
5631.150754592716
 20
4255.862391274635
 30
0.0
 11
5428.35028329758
 21
4253.281131205995
 31
0.0
 12
5631.150754592717
 22
4252.402391502272
 32
0.0
 13
5631.150754592717
 23
4252.402391502272
 33
0.0
210
0.0
220
0.0
230
1.0
  0
SOLID
  5
5EB
330
460
100
AcDbEntity
  8
HATCH
  6
CONTINUOUS
 62
     2
100
AcDbTrace
 10
5437.612416634968
 20
4257.566757724485
 30
0.0
 11
5428.35028329758
 21
4253.281131205995
 31
0.0
 12
5631.150754592716
 22
4255.862391274635
 32
0.0
 13
5631.150754592716
 23
4255.862391274635
 33
0.0
210
0.0
220
0.0
230
1.0
  0
SOLID
  5
5EC
330
460
100
AcDbEntity
  8
HATCH
  6
CONTINUOUS
 62
     2
100
AcDbTrace
 10
5446.778086169878
 20
4262.61423812578
 30
0.0
 11
5437.612416634968
 21
4257.566757724485
 31
0.0
 12
5631.150754592716
 22
4255.862391274635
 32
0.0
 13
5631.150754592716
 23
4255.862391274635
 33
0.0
210
0.0
220
0.0
230
1.0
  0
SOLID
  5
5ED
330
460
100
AcDbEntity
  8
HATCH
  6
CONTINUOUS
 62
     2
100
AcDbTrace
 10
5631.150754592709
 20
4263.518326976661
 30
0.0
 11
5446.778086169878
 21
4262.61423812578
 31
0.0
 12
5631.150754592716
 22
4255.862391274635
 32
0.0
 13
5631.150754592716
 23
4255.862391274635
 33
0.0
210
0.0
220
0.0
230
1.0
  0
SOLID
  5
5EE
330
460
100
AcDbEntity
  8
HATCH
  6
CONTINUOUS
 62
     2
100
AcDbTrace
 10
5942.970004149033
 20
4263.91014096767
 30
0.0
 11
5631.150754592709
 21
4263.518326976661
 31
0.0
 12
5933.479016929724
 22
4263.518326976593
 32
0.0
 13
5933.479016929724
 23
4263.518326976593
 33
0.0
210
0.0
220
0.0
230
1.0
  0
SOLID
  5
5EF
330
460
100
AcDbEntity
  8
HATCH
  6
CONTINUOUS
 62
     2
100
AcDbTrace
 10
5952.444823100598
 20
4265.084915470453
 30
0.0
 11
5631.150754592709
 21
4263.518326976661
 31
0.0
 12
5942.970004149033
 22
4263.91014096767
 32
0.0
 13
5942.970004149033
 23
4263.91014096767
 33
0.0
210
0.0
220
0.0
230
1.0
  0
SOLID
  5
5F0
330
460
100
AcDbEntity
  8
HATCH
  6
CONTINUOUS
 62
     2
100
AcDbTrace
 10
5961.887333059944
 20
4267.040649210652
 30
0.0
 11
5631.150754592709
 21
4263.518326976661
 31
0.0
 12
5952.444823100598
 22
4265.084915470453
 32
0.0
 13
5952.444823100598
 23
4265.084915470453
 33
0.0
210
0.0
220
0.0
230
1.0
  0
SOLID
  5
5F1
330
460
100
AcDbEntity
  8
HATCH
  6
CONTINUOUS
 62
     2
100
AcDbTrace
 10
5961.887333059944
 20
4267.040649210652
 30
0.0
 11
5446.778086169878
 21
4262.61423812578
 31
0.0
 12
5631.150754592709
 22
4263.518326976661
 32
0.0
 13
5631.150754592709
 23
4263.518326976661
 33
0.0
210
0.0
220
0.0
230
1.0
  0
SOLID
  5
5F2
330
460
100
AcDbEntity
  8
HATCH
  6
CONTINUOUS
 62
     2
100
AcDbTrace
 10
5455.831632509662
 20
4268.414948874283
 30
0.0
 11
5446.778086169878
 21
4262.61423812578
 31
0.0
 12
5961.887333059944
 22
4267.040649210652
 32
0.0
 13
5961.887333059944
 23
4267.040649210652
 33
0.0
210
0.0
220
0.0
230
1.0
  0
SOLID
  5
5F3
330
460
100
AcDbEntity
  8
HATCH
  6
CONTINUOUS
 62
     2
100
AcDbTrace
 10
5971.281448342234
 20
4269.77401051939
 30
0.0
 11
5455.831632509662
 21
4268.414948874283
 31
0.0
 12
5961.887333059944
 22
4267.040649210652
 32
0.0
 13
5961.887333059944
 23
4267.040649210652
 33
0.0
  0
SOLID
  5
5F4
330
460
100
AcDbEntity
  8
HATCH
  6
CONTINUOUS
 62
     2
100
AcDbTrace
 10
5980.611165704855
 20
4273.280343008823
 30
0.0
 11
5455.831632509662
 21
4268.414948874283
 31
0.0
 12
5971.281448342234
 22
4269.77401051939
 32
0.0
 13
5971.281448342234
 23
4269.77401051939
 33
0.0
  0
SOLID
  5
5F5
330
460
100
AcDbEntity
  8
HATCH
  6
CONTINUOUS
 62
     2
100
AcDbTrace
 10
5464.757587822266
 20
4274.958979552986
 30
0.0
 11
5455.831632509662
 21
4268.414948874283
 31
0.0
 12
5980.611165704855
 22
4273.280343008823
 32
0.0
 13
5980.611165704855
 23
4273.280343008823
 33
0.0
210
0.0
220
0.0
230
1.0
  0
SOLID
  5
5F6
330
460
100
AcDbEntity
  8
HATCH
  6
CONTINUOUS
 62
     2
100
AcDbTrace
 10
5989.860591609564
 20
4277.55367350449
 30
0.0
 11
5464.757587822266
 21
4274.958979552986
 31
0.0
 12
5980.611165704855
 22
4273.280343008823
 32
0.0
 13
5980.611165704855
 23
4273.280343008823
 33
0.0
210
0.0
220
0.0
230
1.0
  0
SOLID
  5
5F7
330
460
100
AcDbEntity
  8
HATCH
  6
CONTINUOUS
 62
     2
100
AcDbTrace
 10
5473.540702262766
 20
4282.235149795249
 30
0.0
 11
5464.757587822266
 21
4274.958979552986
 31
0.0
 12
5989.860591609564
 22
4277.55367350449
 32
0.0
 13
5989.860591609564
 23
4277.55367350449
 33
0.0
210
0.0
220
0.0
230
1.0
  0
SOLID
  5
5F8
330
460
100
AcDbEntity
  8
HATCH
  6
CONTINUOUS
 62
     2
100
AcDbTrace
 10
5999.013969297756
 20
4282.586722220837
 30
0.0
 11
5473.540702262766
 21
4282.235149795249
 31
0.0
 12
5989.860591609564
 22
4277.55367350449
 32
0.0
 13
5989.860591609564
 23
4277.55367350449
 33
0.0
  0
SOLID
  5
5F9
330
460
100
AcDbEntity
  8
HATCH
  6
CONTINUOUS
 62
     2
100
AcDbTrace
 10
6008.055705632721
 20
4288.370915162626
 30
0.0
 11
5473.540702262766
 21
4282.235149795249
 31
0.0
 12
5999.013969297756
 22
4282.586722220837
 32
0.0
 13
5999.013969297756
 23
4282.586722220837
 33
0.0
210
0.0
220
0.0
230
1.0
  0
SOLID
  5
5FA
330
460
100
AcDbEntity
  8
HATCH
  6
CONTINUOUS
 62
     2
100
AcDbTrace
 10
5482.165970027479
 20
4290.231028386265
 30
0.0
 11
5473.540702262766
 21
4282.235149795249
 31
0.0
 12
6008.055705632721
 22
4288.370915162626
 32
0.0
 13
6008.055705632721
 23
4288.370915162626
 33
0.0
210
0.0
220
0.0
230
1.0
  0
SOLID
  5
5FB
330
460
100
AcDbEntity
  8
HATCH
  6
CONTINUOUS
 62
     2
100
AcDbTrace
 10
6016.970397663155
 20
4294.896398731069
 30
0.0
 11
5482.165970027479
 21
4290.231028386265
 31
0.0
 12
6008.055705632721
 22
4288.370915162626
 32
0.0
 13
6008.055705632721
 23
4288.370915162626
 33
0.0
210
0.0
220
0.0
230
1.0
  0
SOLID
  5
5FC
330
460
100
AcDbEntity
  8
HATCH
  6
CONTINUOUS
 62
     2
100
AcDbTrace
 10
5490.618654991111
 20
4298.93295450159
 30
0.0
 11
5482.165970027479
 21
4290.231028386265
 31
0.0
 12
6016.970397663155
 22
4294.896398731069
 32
0.0
 13
6016.970397663155
 23
4294.896398731069
 33
0.0
210
0.0
220
0.0
230
1.0
  0
SOLID
  5
5FD
330
460
100
AcDbEntity
  8
HATCH
  6
CONTINUOUS
 62
     2
100
AcDbTrace
 10
6025.742858862694
 20
4302.152056509815
 30
0.0
 11
5490.618654991111
 21
4298.93295450159
 31
0.0
 12
6016.970397663155
 22
4294.896398731069
 32
0.0
 13
6016.970397663155
 23
4294.896398731069
 33
0.0
210
0.0
220
0.0
230
1.0
  0
SOLID
  5
5FE
330
460
100
AcDbEntity
  8
HATCH
  6
CONTINUOUS
 62
     2
100
AcDbTrace
 10
5498.884315883191
 20
4308.326061046426
 30
0.0
 11
5490.618654991111
 21
4298.93295450159
 31
0.0
 12
6025.742858862694
 22
4302.152056509815
 32
0.0
 13
6025.742858862694
 23
4302.152056509815
 33
0.0
210
0.0
220
0.0
230
1.0
  0
SOLID
  5
5FF
330
460
100
AcDbEntity
  8
HATCH
  6
CONTINUOUS
 62
     2
100
AcDbTrace
 10
6034.358145000754
 20
4310.125528202201
 30
0.0
 11
5498.884315883191
 21
4308.326061046426
 31
0.0
 12
6025.742858862694
 22
4302.152056509815
 32
0.0
 13
6025.742858862694
 23
4302.152056509815
 33
0.0
210
0.0
220
0.0
230
1.0
  0
SOLID
  5
600
330
460
100
AcDbEntity
  8
HATCH
  6
CONTINUOUS
 62
     2
100
AcDbTrace
 10
5506.948830960741
 20
4318.39430005581
 30
0.0
 11
5498.884315883191
 21
4308.326061046426
 31
0.0
 12
6034.358145000754
 22
4310.125528202201
 32
0.0
 13
6034.358145000754
 23
4310.125528202201
 33
0.0
210
0.0
220
0.0
230
1.0
  0
SOLID
  5
601
330
460
100
AcDbEntity
  8
HATCH
  6
CONTINUOUS
 62
     2
100
AcDbTrace
 10
6042.801579600615
 20
4318.803230687503
 30
0.0
 11
5506.948830960741
 21
4318.39430005581
 31
0.0
 12
6034.358145000754
 22
4310.125528202201
 32
0.0
 13
6034.358145000754
 23
4310.125528202201
 33
0.0
210
0.0
220
0.0
230
1.0
  0
SOLID
  5
602
330
460
100
AcDbEntity
  8
HATCH
  6
CONTINUOUS
 62
     2
100
AcDbTrace
 10
6051.058778941367
 20
4328.170381160314
 30
0.0
 11
5506.948830960741
 21
4318.39430005581
 31
0.0
 12
6042.801579600615
 22
4318.803230687503
 32
0.0
 13
6042.801579600615
 23
4318.803230687503
 33
0.0
210
0.0
220
0.0
230
1.0
  0
SOLID
  5
603
330
460
100
AcDbEntity
  8
HATCH
  6
CONTINUOUS
 62
     2
100
AcDbTrace
 10
5514.798422135027
 20
4329.120470112284
 30
0.0
 11
5506.948830960741
 21
4318.39430005581
 31
0.0
 12
6051.058778941367
 22
4328.170381160314
 32
0.0
 13
6051.058778941367
 23
4328.170381160314
 33
0.0
210
0.0
220
0.0
230
1.0
  0
SOLID
  5
604
330
460
100
AcDbEntity
  8
HATCH
  6
CONTINUOUS
 62
     2
100
AcDbTrace
 10
6059.115676561145
 20
4338.211022313623
 30
0.0
 11
5514.798422135027
 21
4329.120470112284
 31
0.0
 12
6051.058778941367
 22
4328.170381160314
 32
0.0
 13
6051.058778941367
 23
4328.170381160314
 33
0.0
210
0.0
220
0.0
230
1.0
  0
SOLID
  5
605
330
460
100
AcDbEntity
  8
HATCH
  6
CONTINUOUS
 62
     2
100
AcDbTrace
 10
5522.419678511203
 20
4340.486245734232
 30
0.0
 11
5514.798422135027
 21
4329.120470112284
 31
0.0
 12
6059.115676561145
 22
4338.211022313623
 32
0.0
 13
6059.115676561145
 23
4338.211022313623
 33
0.0
  0
SOLID
  5
606
330
460
100
AcDbEntity
  8
HATCH
  6
CONTINUOUS
 62
     2
100
AcDbTrace
 10
6066.958547219898
 20
4348.908049522722
 30
0.0
 11
5522.419678511203
 21
4340.486245734232
 31
0.0
 12
6059.115676561145
 22
4338.211022313623
 32
0.0
 13
6059.115676561145
 23
4338.211022313623
 33
0.0
210
0.0
220
0.0
230
1.0
  0
SOLID
  5
607
330
460
100
AcDbEntity
  8
HATCH
  6
CONTINUOUS
 62
     2
100
AcDbTrace
 10
5529.799579300595
 20
4352.472208684662
 30
0.0
 11
5522.419678511203
 21
4340.486245734232
 31
0.0
 12
6066.958547219898
 22
4348.908049522722
 32
0.0
 13
6066.958547219898
 23
4348.908049522722
 33
0.0
210
0.0
220
0.0
230
1.0
  0
SOLID
  5
608
330
460
100
AcDbEntity
  8
HATCH
  6
CONTINUOUS
 62
     2
100
AcDbTrace
 10
6074.574030280866
 20
4360.243239983594
 30
0.0
 11
5529.799579300595
 21
4352.472208684662
 31
0.0
 12
6066.958547219898
 22
4348.908049522722
 32
0.0
 13
6066.958547219898
 23
4348.908049522722
 33
0.0
210
0.0
220
0.0
230
1.0
  0
SOLID
  5
609
330
460
100
AcDbEntity
  8
HATCH
  6
CONTINUOUS
 62
     2
100
AcDbTrace
 10
5536.925516066498
 20
4365.057881146933
 30
0.0
 11
5529.799579300595
 21
4352.472208684662
 31
0.0
 12
6074.574030280866
 22
4360.243239983594
 32
0.0
 13
6074.574030280866
 23
4360.243239983594
 33
0.0
210
0.0
220
0.0
230
1.0
  0
SOLID
  5
60A
330
460
100
AcDbEntity
  8
HATCH
  6
CONTINUOUS
 62
     2
100
AcDbTrace
 10
6081.949152470955
 20
4372.197283756181
 30
0.0
 11
5536.925516066498
 21
4365.057881146933
 31
0.0
 12
6074.574030280866
 22
4360.243239983594
 32
0.0
 13
6074.574030280866
 23
4360.243239983594
 33
0.0
210
0.0
220
0.0
230
1.0
  0
SOLID
  5
60B
330
460
100
AcDbEntity
  8
HATCH
  6
CONTINUOUS
 62
     2
100
AcDbTrace
 10
5543.785314265482
 20
4378.22176071076
 30
0.0
 11
5536.925516066498
 21
4365.057881146933
 31
0.0
 12
6081.949152470955
 22
4372.197283756181
 32
0.0
 13
6081.949152470955
 23
4372.197283756181
 33
0.0
210
0.0
220
0.0
230
1.0
  0
SOLID
  5
60C
330
460
100
AcDbEntity
  8
HATCH
  6
CONTINUOUS
 62
     2
100
AcDbTrace
 10
6089.071349981207
 20
4384.74981665961
 30
0.0
 11
5543.785314265482
 21
4378.22176071076
 31
0.0
 12
6081.949152470955
 22
4372.197283756181
 32
0.0
 13
6081.949152470955
 23
4372.197283756181
 33
0.0
210
0.0
220
0.0
230
1.0
  0
SOLID
  5
60D
330
460
100
AcDbEntity
  8
HATCH
  6
CONTINUOUS
 62
     2
100
AcDbTrace
 10
5550.367254047394
 20
4391.941357108732
 30
0.0
 11
5543.785314265482
 21
4378.22176071076
 31
0.0
 12
6089.071349981207
 22
4384.74981665961
 32
0.0
 13
6089.071349981207
 23
4384.74981665961
 33
0.0
210
0.0
220
0.0
230
1.0
  0
SOLID
  5
60E
330
460
100
AcDbEntity
  8
HATCH
  6
CONTINUOUS
 62
     2
100
AcDbTrace
 10
6095.928489869747
 20
4397.879454963383
 30
0.0
 11
5550.367254047394
 21
4391.941357108732
 31
0.0
 12
6089.071349981207
 22
4384.74981665961
 32
0.0
 13
6089.071349981207
 23
4384.74981665961
 33
0.0
  0
SOLID
  5
60F
330
460
100
AcDbEntity
  8
HATCH
  6
CONTINUOUS
 62
     2
100
AcDbTrace
 10
5556.660090278529
 20
4406.193230640541
 30
0.0
 11
5550.367254047394
 21
4391.941357108732
 31
0.0
 12
6095.928489869747
 22
4397.879454963383
 32
0.0
 13
6095.928489869747
 23
4397.879454963383
 33
0.0
210
0.0
220
0.0
230
1.0
  0
SOLID
  5
610
330
460
100
AcDbEntity
  8
HATCH
  6
CONTINUOUS
 62
     2
100
AcDbTrace
 10
6102.508890730716
 20
4411.563831815389
 30
0.0
 11
5556.660090278529
 21
4406.193230640541
 31
0.0
 12
6095.928489869747
 22
4397.879454963383
 32
0.0
 13
6095.928489869747
 23
4397.879454963383
 33
0.0
  0
SOLID
  5
611
330
460
100
AcDbEntity
  8
HATCH
  6
CONTINUOUS
 62
     2
100
AcDbTrace
 10
5562.653071753742
 20
4420.953032219326
 30
0.0
 11
5556.660090278529
 21
4406.193230640541
 31
0.0
 12
6102.508890730716
 22
4411.563831815389
 32
0.0
 13
6102.508890730716
 23
4411.563831815389
 33
0.0
210
0.0
220
0.0
230
1.0
  0
SOLID
  5
612
330
460
100
AcDbEntity
  8
HATCH
  6
CONTINUOUS
 62
     2
100
AcDbTrace
 10
6108.801342594008
 20
4425.779635344716
 30
0.0
 11
5562.653071753742
 21
4420.953032219326
 31
0.0
 12
6102.508890730716
 22
4411.563831815389
 32
0.0
 13
6102.508890730716
 23
4411.563831815389
 33
0.0
210
0.0
220
0.0
230
1.0
  0
SOLID
  5
613
330
460
100
AcDbEntity
  8
HATCH
  6
CONTINUOUS
 62
     2
100
AcDbTrace
 10
5568.335959564713
 20
4436.195544971682
 30
0.0
 11
5562.653071753742
 21
4420.953032219326
 31
0.0
 12
6108.801342594008
 22
4425.779635344716
 32
0.0
 13
6108.801342594008
 23
4425.779635344716
 33
0.0
210
0.0
220
0.0
230
1.0
  0
SOLID
  5
614
330
460
100
AcDbEntity
  8
HATCH
  6
CONTINUOUS
 62
     2
100
AcDbTrace
 10
6114.795126021893
 20
4440.502648374334
 30
0.0
 11
5568.335959564713
 21
4436.195544971682
 31
0.0
 12
6108.801342594008
 22
4425.779635344716
 32
0.0
 13
6108.801342594008
 23
4425.779635344716
 33
0.0
  0
SOLID
  5
615
330
460
100
AcDbEntity
  8
HATCH
  6
CONTINUOUS
 62
     2
100
AcDbTrace
 10
5573.699044592948
 20
4451.894727320258
 30
0.0
 11
5568.335959564713
 21
4436.195544971682
 31
0.0
 12
6114.795126021893
 22
4440.502648374334
 32
0.0
 13
6114.795126021893
 23
4440.502648374334
 33
0.0
  0
SOLID
  5
616
330
460
100
AcDbEntity
  8
HATCH
  6
CONTINUOUS
 62
     2
100
AcDbTrace
 10
6120.480030369996
 20
4455.707789675999
 30
0.0
 11
5573.699044592948
 21
4451.894727320258
 31
0.0
 12
6114.795126021893
 22
4440.502648374334
 32
0.0
 13
6114.795126021893
 23
4440.502648374334
 33
0.0
210
0.0
220
0.0
230
1.0
  0
SOLID
  5
617
330
460
100
AcDbEntity
  8
HATCH
  6
CONTINUOUS
 62
     2
100
AcDbTrace
 10
5578.733164097638
 20
4468.023757475358
 30
0.0
 11
5573.699044592948
 21
4451.894727320258
 31
0.0
 12
6120.480030369996
 22
4455.707789675999
 32
0.0
 13
6120.480030369996
 23
4455.707789675999
 33
0.0
210
0.0
220
0.0
230
1.0
  0
SOLID
  5
618
330
460
100
AcDbEntity
  8
HATCH
  6
CONTINUOUS
 62
     2
100
AcDbTrace
 10
6125.846371181524
 20
4471.369156697109
 30
0.0
 11
5578.733164097638
 21
4468.023757475358
 31
0.0
 12
6120.480030369996
 22
4455.707789675999
 32
0.0
 13
6120.480030369996
 23
4455.707789675999
 33
0.0
210
0.0
220
0.0
230
1.0
  0
SOLID
  5
619
330
460
100
AcDbEntity
  8
HATCH
  6
CONTINUOUS
 62
     2
100
AcDbTrace
 10
5583.429717370054
 20
4484.555079259521
 30
0.0
 11
5578.733164097638
 21
4468.023757475358
 31
0.0
 12
6125.846371181524
 22
4471.369156697109
 32
0.0
 13
6125.846371181524
 23
4471.369156697109
 33
0.0
210
0.0
220
0.0
230
1.0
  0
SOLID
  5
61A
330
460
100
AcDbEntity
  8
HATCH
  6
CONTINUOUS
 62
     2
100
AcDbTrace
 10
6130.885006685129
 20
4487.460069686718
 30
0.0
 11
5583.429717370054
 21
4484.555079259521
 31
0.0
 12
6125.846371181524
 22
4471.369156697109
 32
0.0
 13
6125.846371181524
 23
4471.369156697109
 33
0.0
210
0.0
220
0.0
230
1.0
  0
SOLID
  5
61B
330
460
100
AcDbEntity
  8
HATCH
  6
CONTINUOUS
 62
     2
100
AcDbTrace
 10
5587.780680427714
 20
4501.460449186785
 30
0.0
 11
5583.429717370054
 21
4484.555079259521
 31
0.0
 12
6130.885006685129
 22
4487.460069686718
 32
0.0
 13
6130.885006685129
 23
4487.460069686718
 33
0.0
  0
SOLID
  5
61C
330
460
100
AcDbEntity
  8
HATCH
  6
CONTINUOUS
 62
     2
100
AcDbTrace
 10
6135.587353368261
 20
4503.953117145523
 30
0.0
 11
5587.780680427714
 21
4501.460449186785
 31
0.0
 12
6130.885006685129
 22
4487.460069686718
 32
0.0
 13
6130.885006685129
 23
4487.460069686718
 33
0.0
210
0.0
220
0.0
230
1.0
  0
SOLID
  5
61D
330
460
100
AcDbEntity
  8
HATCH
  6
CONTINUOUS
 62
     2
100
AcDbTrace
 10
5591.77861972322
 20
4518.71098471621
 30
0.0
 11
5587.780680427714
 21
4501.460449186785
 31
0.0
 12
6135.587353368261
 22
4503.953117145523
 32
0.0
 13
6135.587353368261
 23
4503.953117145523
 33
0.0
  0
SOLID
  5
61E
330
460
100
AcDbEntity
  8
HATCH
  6
CONTINUOUS
 62
     2
100
AcDbTrace
 10
6139.945400599522
 20
4520.820202522441
 30
0.0
 11
5591.77861972322
 21
4518.71098471621
 31
0.0
 12
6135.587353368261
 22
4503.953117145523
 32
0.0
 13
6135.587353368261
 23
4503.953117145523
 33
0.0
210
0.0
220
0.0
230
1.0
  0
SOLID
  5
61F
330
460
100
AcDbEntity
  8
HATCH
  6
CONTINUOUS
 62
     2
100
AcDbTrace
 10
5595.416704844349
 20
4536.277213597214
 30
0.0
 11
5591.77861972322
 21
4518.71098471621
 31
0.0
 12
6139.945400599522
 22
4520.820202522441
 32
0.0
 13
6139.945400599522
 23
4520.820202522441
 33
0.0
210
0.0
220
0.0
230
1.0
  0
SOLID
  5
620
330
460
100
AcDbEntity
  8
HATCH
  6
CONTINUOUS
 62
     2
100
AcDbTrace
 10
6143.951724275091
 20
4538.03259207817
 30
0.0
 11
5595.416704844349
 21
4536.277213597214
 31
0.0
 12
6139.945400599522
 22
4520.820202522441
 32
0.0
 13
6139.945400599522
 23
4520.820202522441
 33
0.0
210
0.0
220
0.0
230
1.0
  0
SOLID
  5
621
330
460
100
AcDbEntity
  8
HATCH
  6
CONTINUOUS
 62
     2
100
AcDbTrace
 10
5598.688720183697
 20
4554.129124222423
 30
0.0
 11
5595.416704844349
 21
4536.277213597214
 31
0.0
 12
6143.951724275091
 22
4538.03259207817
 32
0.0
 13
6143.951724275091
 23
4538.03259207817
 33
0.0
210
0.0
220
0.0
230
1.0
  0
SOLID
  5
622
330
460
100
AcDbEntity
  8
HATCH
  6
CONTINUOUS
 62
     2
100
AcDbTrace
 10
6147.599499465974
 20
4555.560963834242
 30
0.0
 11
5598.688720183697
 21
4554.129124222423
 31
0.0
 12
6143.951724275091
 22
4538.03259207817
 32
0.0
 13
6143.951724275091
 23
4538.03259207817
 33
0.0
210
0.0
220
0.0
230
1.0
  0
SOLID
  5
623
330
460
100
AcDbEntity
  8
HATCH
  6
CONTINUOUS
 62
     2
100
AcDbTrace
 10
5601.589075557947
 20
4572.236216901989
 30
0.0
 11
5598.688720183697
 21
4554.129124222423
 31
0.0
 12
6147.599499465974
 22
4555.560963834242
 32
0.0
 13
6147.599499465974
 23
4555.560963834242
 33
0.0
210
0.0
220
0.0
230
1.0
  0
SOLID
  5
624
330
460
100
AcDbEntity
  8
HATCH
  6
CONTINUOUS
 62
     2
100
AcDbTrace
 10
6150.882512044534
 20
4573.375457524155
 30
0.0
 11
5601.589075557947
 21
4572.236216901989
 31
0.0
 12
6147.599499465974
 22
4555.560963834242
 32
0.0
 13
6147.599499465974
 23
4555.560963834242
 33
0.0
210
0.0
220
0.0
230
1.0
  0
SOLID
  5
625
330
460
100
AcDbEntity
  8
HATCH
  6
CONTINUOUS
 62
     2
100
AcDbTrace
 10
5604.112815758591
 20
4590.56755597181
 30
0.0
 11
5601.589075557947
 21
4572.236216901989
 31
0.0
 12
6150.882512044534
 22
4573.375457524155
 32
0.0
 13
6150.882512044534
 23
4573.375457524155
 33
0.0
  0
SOLID
  5
626
330
460
100
AcDbEntity
  8
HATCH
  6
CONTINUOUS
 62
     2
100
AcDbTrace
 10
6153.795169270505
 20
4591.445725461514
 30
0.0
 11
5604.112815758591
 21
4590.56755597181
 31
0.0
 12
6150.882512044534
 22
4573.375457524155
 32
0.0
 13
6150.882512044534
 23
4573.375457524155
 33
0.0
210
0.0
220
0.0
230
1.0
  0
SOLID
  5
627
330
460
100
AcDbEntity
  8
HATCH
  6
CONTINUOUS
 62
     2
100
AcDbTrace
 10
5606.255629017834
 20
4609.091822646586
 30
0.0
 11
5604.112815758591
 21
4590.56755597181
 31
0.0
 12
6153.795169270505
 22
4591.445725461514
 32
0.0
 13
6153.795169270505
 23
4591.445725461514
 33
0.0
  0
SOLID
  5
628
330
460
100
AcDbEntity
  8
HATCH
  6
CONTINUOUS
 62
     2
100
AcDbTrace
 10
6156.332509318442
 20
4609.740984238487
 30
0.0
 11
5606.255629017834
 21
4609.091822646586
 31
0.0
 12
6153.795169270505
 22
4591.445725461514
 32
0.0
 13
6153.795169270505
 23
4591.445725461514
 33
0.0
210
0.0
220
0.0
230
1.0
  0
SOLID
  5
629
330
460
100
AcDbEntity
  8
HATCH
  6
CONTINUOUS
 62
     2
100
AcDbTrace
 10
5608.013854375165
 20
4627.777368527442
 30
0.0
 11
5606.255629017834
 21
4609.091822646586
 31
0.0
 12
6156.332509318442
 22
4609.740984238487
 32
0.0
 13
6156.332509318442
 23
4609.740984238487
 33
0.0
210
0.0
220
0.0
230
1.0
  0
SOLID
  5
62A
330
460
100
AcDbEntity
  8
HATCH
  6
CONTINUOUS
 62
     2
100
AcDbTrace
 10
6158.490209730387
 20
4628.230067166557
 30
0.0
 11
5608.013854375165
 21
4627.777368527442
 31
0.0
 12
6156.332509318442
 22
4609.740984238487
 32
0.0
 13
6156.332509318442
 23
4609.740984238487
 33
0.0
210
0.0
220
0.0
230
1.0
  0
SOLID
  5
62B
330
460
100
AcDbEntity
  8
HATCH
  6
CONTINUOUS
 62
     2
100
AcDbTrace
 10
5609.384487932057
 20
4646.592269672679
 30
0.0
 11
5608.013854375165
 21
4627.777368527442
 31
0.0
 12
6158.490209730387
 22
4628.230067166557
 32
0.0
 13
6158.490209730387
 23
4628.230067166557
 33
0.0
210
0.0
220
0.0
230
1.0
  0
SOLID
  5
62C
330
460
100
AcDbEntity
  8
HATCH
  6
CONTINUOUS
 62
     2
100
AcDbTrace
 10
6160.264594779337
 20
4646.88147737019
 30
0.0
 11
5609.384487932057
 21
4646.592269672679
 31
0.0
 12
6158.490209730387
 22
4628.230067166557
 32
0.0
 13
6158.490209730387
 23
4628.230067166557
 33
0.0
210
0.0
220
0.0
230
1.0
  0
SOLID
  5
62D
330
460
100
AcDbEntity
  8
HATCH
  6
CONTINUOUS
 62
     2
100
AcDbTrace
 10
5610.365187984068
 20
4665.504381139307
 30
0.0
 11
5609.384487932057
 21
4646.592269672679
 31
0.0
 12
6160.264594779337
 22
4646.88147737019
 32
0.0
 13
6160.264594779337
 23
4646.88147737019
 33
0.0
210
0.0
220
0.0
230
1.0
  0
SOLID
  5
62E
330
460
100
AcDbEntity
  8
HATCH
  6
CONTINUOUS
 62
     2
100
AcDbTrace
 10
6161.652641731
 20
4665.663441442988
 30
0.0
 11
5610.365187984068
 21
4665.504381139307
 31
0.0
 12
6160.264594779337
 22
4646.88147737019
 32
0.0
 13
6160.264594779337
 23
4646.88147737019
 33
0.0
210
0.0
220
0.0
230
1.0
  0
SOLID
  5
62F
330
460
100
AcDbEntity
  8
HATCH
  6
CONTINUOUS
 62
     2
100
AcDbTrace
 10
5610.954279021608
 20
4684.481391902126
 30
0.0
 11
5610.365187984068
 21
4665.504381139307
 31
0.0
 12
6161.652641731
 22
4665.663441442988
 32
0.0
 13
6161.652641731
 23
4665.663441442988
 33
0.0
  0
SOLID
  5
630
330
460
100
AcDbEntity
  8
HATCH
  6
CONTINUOUS
 62
     2
100
AcDbTrace
 10
6162.651985993131
 20
4684.543963574935
 30
0.0
 11
5610.954279021608
 21
4684.481391902126
 31
0.0
 12
6161.652641731
 22
4665.663441442988
 32
0.0
 13
6161.652641731
 23
4665.663441442988
 33
0.0
210
0.0
220
0.0
230
1.0
  0
SOLID
  5
631
330
460
100
AcDbEntity
  8
HATCH
  6
CONTINUOUS
 62
     2
100
AcDbTrace
 10
5611.150754592526
 20
4703.49088005658
 30
0.0
 11
5610.954279021608
 21
4684.481391902126
 31
0.0
 12
6162.651985993131
 22
4684.543963574935
 32
0.0
 13
6162.651985993131
 23
4684.543963574935
 33
0.0
  0
SOLID
  5
632
330
460
100
AcDbEntity
  8
HATCH
  6
CONTINUOUS
 62
     2
100
AcDbTrace
 10
6163.260925143712
 20
4703.490880058518
 30
0.0
 11
5611.150754592526
 21
4703.49088005658
 31
0.0
 12
6162.651985993131
 22
4684.543963574935
 32
0.0
 13
6162.651985993131
 23
4684.543963574935
 33
0.0
210
0.0
220
0.0
230
1.0
  0
SOLID
  5
633
330
460
100
AcDbEntity
  8
HATCH
  6
CONTINUOUS
 62
     2
100
AcDbTrace
 10
6162.651985993045
 20
4722.437796541975
 30
0.0
 11
5611.150754592526
 21
4703.49088005658
 31
0.0
 12
6163.260925143712
 22
4703.490880058518
 32
0.0
 13
6163.260925143712
 23
4703.490880058518
 33
0.0
210
0.0
220
0.0
230
1.0
  0
SOLID
  5
634
330
460
100
AcDbEntity
  8
HATCH
  6
CONTINUOUS
 62
     2
100
AcDbTrace
 10
5610.954279021601
 20
4722.500368211031
 30
0.0
 11
5611.150754592526
 21
4703.49088005658
 31
0.0
 12
6162.651985993045
 22
4722.437796541975
 32
0.0
 13
6162.651985993045
 23
4722.437796541975
 33
0.0
210
0.0
220
0.0
230
1.0
  0
SOLID
  5
635
330
460
100
AcDbEntity
  8
HATCH
  6
CONTINUOUS
 62
     2
100
AcDbTrace
 10
6161.652641730835
 20
4741.318318673799
 30
0.0
 11
5610.954279021601
 21
4722.500368211031
 31
0.0
 12
6162.651985993045
 22
4722.437796541975
 32
0.0
 13
6162.651985993045
 23
4722.437796541975
 33
0.0
210
0.0
220
0.0
230
1.0
  0
SOLID
  5
636
330
460
100
AcDbEntity
  8
HATCH
  6
CONTINUOUS
 62
     2
100
AcDbTrace
 10
5610.365187984053
 20
4741.477378973851
 30
0.0
 11
5610.954279021601
 21
4722.500368211031
 31
0.0
 12
6161.652641730835
 22
4741.318318673799
 32
0.0
 13
6161.652641730835
 23
4741.318318673799
 33
0.0
210
0.0
220
0.0
230
1.0
  0
SOLID
  5
637
330
460
100
AcDbEntity
  8
HATCH
  6
CONTINUOUS
 62
     2
100
AcDbTrace
 10
6160.264594779098
 20
4760.10028274647
 30
0.0
 11
5610.365187984053
 21
4741.477378973851
 31
0.0
 12
6161.652641730835
 22
4741.318318673799
 32
0.0
 13
6161.652641730835
 23
4741.318318673799
 33
0.0
210
0.0
220
0.0
230
1.0
  0
SOLID
  5
638
330
460
100
AcDbEntity
  8
HATCH
  6
CONTINUOUS
 62
     2
100
AcDbTrace
 10
5609.384487932036
 20
4760.38949044048
 30
0.0
 11
5610.365187984053
 21
4741.477378973851
 31
0.0
 12
6160.264594779098
 22
4760.10028274647
 32
0.0
 13
6160.264594779098
 23
4760.10028274647
 33
0.0
  0
SOLID
  5
639
330
460
100
AcDbEntity
  8
HATCH
  6
CONTINUOUS
 62
     2
100
AcDbTrace
 10
6158.490209730078
 20
4778.75169294997
 30
0.0
 11
5609.384487932036
 21
4760.38949044048
 31
0.0
 12
6160.264594779098
 22
4760.10028274647
 32
0.0
 13
6160.264594779098
 23
4760.10028274647
 33
0.0
210
0.0
220
0.0
230
1.0
  0
SOLID
  5
63A
330
460
100
AcDbEntity
  8
HATCH
  6
CONTINUOUS
 62
     2
100
AcDbTrace
 10
5608.013854375138
 20
4779.204391585718
 30
0.0
 11
5609.384487932036
 21
4760.38949044048
 31
0.0
 12
6158.490209730078
 22
4778.75169294997
 32
0.0
 13
6158.490209730078
 23
4778.75169294997
 33
0.0
  0
SOLID
  5
63B
330
460
100
AcDbEntity
  8
HATCH
  6
CONTINUOUS
 62
     2
100
AcDbTrace
 10
6156.332509318069
 20
4797.240775877905
 30
0.0
 11
5608.013854375138
 21
4779.204391585718
 31
0.0
 12
6158.490209730078
 22
4778.75169294997
 32
0.0
 13
6158.490209730078
 23
4778.75169294997
 33
0.0
210
0.0
220
0.0
230
1.0
  0
SOLID
  5
63C
330
460
100
AcDbEntity
  8
HATCH
  6
CONTINUOUS
 62
     2
100
AcDbTrace
 10
5606.2556290178
 20
4797.889937466574
 30
0.0
 11
5608.013854375138
 21
4779.204391585718
 31
0.0
 12
6156.332509318069
 22
4797.240775877905
 32
0.0
 13
6156.332509318069
 23
4797.240775877905
 33
0.0
210
0.0
220
0.0
230
1.0
  0
SOLID
  5
63D
330
460
100
AcDbEntity
  8
HATCH
  6
CONTINUOUS
 62
     2
100
AcDbTrace
 10
6153.795169270072
 20
4815.53603465474
 30
0.0
 11
5606.2556290178
 21
4797.889937466574
 31
0.0
 12
6156.332509318069
 22
4797.240775877905
 32
0.0
 13
6156.332509318069
 23
4797.240775877905
 33
0.0
210
0.0
220
0.0
230
1.0
  0
SOLID
  5
63E
330
460
100
AcDbEntity
  8
HATCH
  6
CONTINUOUS
 62
     2
100
AcDbTrace
 10
5604.112815758551
 20
4816.414204141352
 30
0.0
 11
5606.2556290178
 21
4797.889937466574
 31
0.0
 12
6153.795169270072
 22
4815.53603465474
 32
0.0
 13
6153.795169270072
 23
4815.53603465474
 33
0.0
210
0.0
220
0.0
230
1.0
  0
SOLID
  5
63F
330
460
100
AcDbEntity
  8
HATCH
  6
CONTINUOUS
 62
     2
100
AcDbTrace
 10
6150.882512044046
 20
4833.606302591955
 30
0.0
 11
5604.112815758551
 21
4816.414204141352
 31
0.0
 12
6153.795169270072
 22
4815.53603465474
 32
0.0
 13
6153.795169270072
 23
4815.53603465474
 33
0.0
210
0.0
220
0.0
230
1.0
  0
SOLID
  5
640
330
460
100
AcDbEntity
  8
HATCH
  6
CONTINUOUS
 62
     2
100
AcDbTrace
 10
5601.5890755579
 20
4834.745543211175
 30
0.0
 11
5604.112815758551
 21
4816.414204141352
 31
0.0
 12
6150.882512044046
 22
4833.606302591955
 32
0.0
 13
6150.882512044046
 23
4833.606302591955
 33
0.0
210
0.0
220
0.0
230
1.0
  0
SOLID
  5
641
330
460
100
AcDbEntity
  8
HATCH
  6
CONTINUOUS
 62
     2
100
AcDbTrace
 10
6147.599499465436
 20
4851.420796281723
 30
0.0
 11
5601.5890755579
 21
4834.745543211175
 31
0.0
 12
6150.882512044046
 22
4833.606302591955
 32
0.0
 13
6150.882512044046
 23
4833.606302591955
 33
0.0
210
0.0
220
0.0
230
1.0
  0
SOLID
  5
642
330
460
100
AcDbEntity
  8
HATCH
  6
CONTINUOUS
 62
     2
100
AcDbTrace
 10
5598.688720183642
 20
4852.852635890742
 30
0.0
 11
5601.5890755579
 21
4834.745543211175
 31
0.0
 12
6147.599499465436
 22
4851.420796281723
 32
0.0
 13
6147.599499465436
 23
4851.420796281723
 33
0.0
  0
SOLID
  5
643
330
460
100
AcDbEntity
  8
HATCH
  6
CONTINUOUS
 62
     2
100
AcDbTrace
 10
6143.95172427451
 20
4868.949168037648
 30
0.0
 11
5598.688720183642
 21
4852.852635890742
 31
0.0
 12
6147.599499465436
 22
4851.420796281723
 32
0.0
 13
6147.599499465436
 23
4851.420796281723
 33
0.0
210
0.0
220
0.0
230
1.0
  0
SOLID
  5
644
330
460
100
AcDbEntity
  8
HATCH
  6
CONTINUOUS
 62
     2
100
AcDbTrace
 10
5595.416704844287
 20
4870.704546515951
 30
0.0
 11
5598.688720183642
 21
4852.852635890742
 31
0.0
 12
6143.95172427451
 22
4868.949168037648
 32
0.0
 13
6143.95172427451
 23
4868.949168037648
 33
0.0
210
0.0
220
0.0
230
1.0
  0
SOLID
  5
645
330
460
100
AcDbEntity
  8
HATCH
  6
CONTINUOUS
 62
     2
100
AcDbTrace
 10
6139.945400598902
 20
4886.161557593229
 30
0.0
 11
5595.416704844287
 21
4870.704546515951
 31
0.0
 12
6143.95172427451
 22
4868.949168037648
 32
0.0
 13
6143.95172427451
 23
4868.949168037648
 33
0.0
210
0.0
220
0.0
230
1.0
  0
SOLID
  5
646
330
460
100
AcDbEntity
  8
HATCH
  6
CONTINUOUS
 62
     2
100
AcDbTrace
 10
5591.778619723153
 20
4888.270775396956
 30
0.0
 11
5595.416704844287
 21
4870.704546515951
 31
0.0
 12
6139.945400598902
 22
4886.161557593229
 32
0.0
 13
6139.945400598902
 23
4886.161557593229
 33
0.0
  0
SOLID
  5
647
330
460
100
AcDbEntity
  8
HATCH
  6
CONTINUOUS
 62
     2
100
AcDbTrace
 10
6135.587353367607
 20
4903.028642969999
 30
0.0
 11
5591.778619723153
 21
4888.270775396956
 31
0.0
 12
6139.945400598902
 22
4886.161557593229
 32
0.0
 13
6139.945400598902
 23
4886.161557593229
 33
0.0
210
0.0
220
0.0
230
1.0
  0
SOLID
  5
648
330
460
100
AcDbEntity
  8
HATCH
  6
CONTINUOUS
 62
     2
100
AcDbTrace
 10
5587.780680427641
 20
4905.521310926382
 30
0.0
 11
5591.778619723153
 21
4888.270775396956
 31
0.0
 12
6135.587353367607
 22
4903.028642969999
 32
0.0
 13
6135.587353367607
 23
4903.028642969999
 33
0.0
210
0.0
220
0.0
230
1.0
  0
SOLID
  5
649
330
460
100
AcDbEntity
  8
HATCH
  6
CONTINUOUS
 62
     2
100
AcDbTrace
 10
6130.885006684446
 20
4919.521690428657
 30
0.0
 11
5587.780680427641
 21
4905.521310926382
 31
0.0
 12
6135.587353367607
 22
4903.028642969999
 32
0.0
 13
6135.587353367607
 23
4903.028642969999
 33
0.0
  0
SOLID
  5
64A
330
460
100
AcDbEntity
  8
HATCH
  6
CONTINUOUS
 62
     2
100
AcDbTrace
 10
5583.429717369973
 20
4922.426680853646
 30
0.0
 11
5587.780680427641
 21
4905.521310926382
 31
0.0
 12
6130.885006684446
 22
4919.521690428657
 32
0.0
 13
6130.885006684446
 23
4919.521690428657
 33
0.0
210
0.0
220
0.0
230
1.0
  0
SOLID
  5
64B
330
460
100
AcDbEntity
  8
HATCH
  6
CONTINUOUS
 62
     2
100
AcDbTrace
 10
6125.846371180818
 20
4935.612603418118
 30
0.0
 11
5583.429717369973
 21
4922.426680853646
 31
0.0
 12
6130.885006684446
 22
4919.521690428657
 32
0.0
 13
6130.885006684446
 23
4919.521690428657
 33
0.0
210
0.0
220
0.0
230
1.0
  0
SOLID
  5
64C
330
460
100
AcDbEntity
  8
HATCH
  6
CONTINUOUS
 62
     2
100
AcDbTrace
 10
5578.733164097551
 20
4938.958002637811
 30
0.0
 11
5583.429717369973
 21
4922.426680853646
 31
0.0
 12
6125.846371180818
 22
4935.612603418118
 32
0.0
 13
6125.846371180818
 23
4935.612603418118
 33
0.0
210
0.0
220
0.0
230
1.0
  0
SOLID
  5
64D
330
460
100
AcDbEntity
  8
HATCH
  6
CONTINUOUS
 62
     2
100
AcDbTrace
 10
6120.48003036927
 20
4951.273970439081
 30
0.0
 11
5578.733164097551
 21
4938.958002637811
 31
0.0
 12
6125.846371180818
 22
4935.612603418118
 32
0.0
 13
6125.846371180818
 23
4935.612603418118
 33
0.0
210
0.0
220
0.0
230
1.0
  0
SOLID
  5
64E
330
460
100
AcDbEntity
  8
HATCH
  6
CONTINUOUS
 62
     2
100
AcDbTrace
 10
5573.699044592855
 20
4955.087032792912
 30
0.0
 11
5578.733164097551
 21
4938.958002637811
 31
0.0
 12
6120.48003036927
 22
4951.273970439081
 32
0.0
 13
6120.48003036927
 23
4951.273970439081
 33
0.0
210
0.0
220
0.0
230
1.0
  0
SOLID
  5
64F
330
460
100
AcDbEntity
  8
HATCH
  6
CONTINUOUS
 62
     2
100
AcDbTrace
 10
6114.795126021154
 20
4966.4791117406
 30
0.0
 11
5573.699044592855
 21
4955.087032792912
 31
0.0
 12
6120.48003036927
 22
4951.273970439081
 32
0.0
 13
6120.48003036927
 23
4951.273970439081
 33
0.0
210
0.0
220
0.0
230
1.0
  0
SOLID
  5
650
330
460
100
AcDbEntity
  8
HATCH
  6
CONTINUOUS
 62
     2
100
AcDbTrace
 10
5568.335959564614
 20
4970.786215141487
 30
0.0
 11
5573.699044592855
 21
4955.087032792912
 31
0.0
 12
6114.795126021154
 22
4966.4791117406
 32
0.0
 13
6114.795126021154
 23
4966.4791117406
 33
0.0
  0
SOLID
  5
651
330
460
100
AcDbEntity
  8
HATCH
  6
CONTINUOUS
 62
     2
100
AcDbTrace
 10
6108.80134259326
 20
4981.202124770076
 30
0.0
 11
5568.335959564614
 21
4970.786215141487
 31
0.0
 12
6114.795126021154
 22
4966.4791117406
 32
0.0
 13
6114.795126021154
 23
4966.4791117406
 33
0.0
210
0.0
220
0.0
230
1.0
  0
SOLID
  5
652
330
460
100
AcDbEntity
  8
HATCH
  6
CONTINUOUS
 62
     2
100
AcDbTrace
 10
5562.653071753636
 20
4986.028727893844
 30
0.0
 11
5568.335959564614
 21
4970.786215141487
 31
0.0
 12
6108.80134259326
 22
4981.202124770076
 32
0.0
 13
6108.80134259326
 23
4981.202124770076
 33
0.0
210
0.0
220
0.0
230
1.0
  0
SOLID
  5
653
330
460
100
AcDbEntity
  8
HATCH
  6
CONTINUOUS
 62
     2
100
AcDbTrace
 10
6102.508890729963
 20
4995.417928299263
 30
0.0
 11
5562.653071753636
 21
4986.028727893844
 31
0.0
 12
6108.80134259326
 22
4981.202124770076
 32
0.0
 13
6108.80134259326
 23
4981.202124770076
 33
0.0
210
0.0
220
0.0
230
1.0
  0
SOLID
  5
654
330
460
100
AcDbEntity
  8
HATCH
  6
CONTINUOUS
 62
     2
100
AcDbTrace
 10
5556.660090278416
 20
5000.78852947263
 30
0.0
 11
5562.653071753636
 21
4986.028727893844
 31
0.0
 12
6102.508890729963
 22
4995.417928299263
 32
0.0
 13
6102.508890729963
 23
4995.417928299263
 33
0.0
210
0.0
220
0.0
230
1.0
  0
SOLID
  5
655
330
460
100
AcDbEntity
  8
HATCH
  6
CONTINUOUS
 62
     2
100
AcDbTrace
 10
6095.928489868995
 20
5009.102305151133
 30
0.0
 11
5556.660090278416
 21
5000.78852947263
 31
0.0
 12
6102.508890729963
 22
4995.417928299263
 32
0.0
 13
6102.508890729963
 23
4995.417928299263
 33
0.0
  0
SOLID
  5
656
330
460
100
AcDbEntity
  8
HATCH
  6
CONTINUOUS
 62
     2
100
AcDbTrace
 10
5550.367254047278
 20
5015.040403004439
 30
0.0
 11
5556.660090278416
 21
5000.78852947263
 31
0.0
 12
6095.928489868995
 22
5009.102305151133
 32
0.0
 13
6095.928489868995
 23
5009.102305151133
 33
0.0
  0
SOLID
  5
657
330
460
100
AcDbEntity
  8
HATCH
  6
CONTINUOUS
 62
     2
100
AcDbTrace
 10
6089.071349980462
 20
5022.231943454773
 30
0.0
 11
5550.367254047278
 21
5015.040403004439
 31
0.0
 12
6095.928489868995
 22
5009.102305151133
 32
0.0
 13
6095.928489868995
 23
5009.102305151133
 33
0.0
210
0.0
220
0.0
230
1.0
  0
SOLID
  5
658
330
460
100
AcDbEntity
  8
HATCH
  6
CONTINUOUS
 62
     2
100
AcDbTrace
 10
5543.78531426536
 20
5028.75999940241
 30
0.0
 11
5550.367254047278
 21
5015.040403004439
 31
0.0
 12
6089.071349980462
 22
5022.231943454773
 32
0.0
 13
6089.071349980462
 23
5022.231943454773
 33
0.0
210
0.0
220
0.0
230
1.0
  0
SOLID
  5
659
330
460
100
AcDbEntity
  8
HATCH
  6
CONTINUOUS
 62
     2
100
AcDbTrace
 10
6081.949152470218
 20
5034.784476358073
 30
0.0
 11
5543.78531426536
 21
5028.75999940241
 31
0.0
 12
6089.071349980462
 22
5022.231943454773
 32
0.0
 13
6089.071349980462
 23
5022.231943454773
 33
0.0
210
0.0
220
0.0
230
1.0
  0
SOLID
  5
65A
330
460
100
AcDbEntity
  8
HATCH
  6
CONTINUOUS
 62
     2
100
AcDbTrace
 10
5536.925516066371
 20
5041.923878966239
 30
0.0
 11
5543.78531426536
 21
5028.75999940241
 31
0.0
 12
6081.949152470218
 22
5034.784476358073
 32
0.0
 13
6081.949152470218
 23
5034.784476358073
 33
0.0
210
0.0
220
0.0
230
1.0
  0
SOLID
  5
65B
330
460
100
AcDbEntity
  8
HATCH
  6
CONTINUOUS
 62
     2
100
AcDbTrace
 10
6074.574030280143
 20
5046.738520130535
 30
0.0
 11
5536.925516066371
 21
5041.923878966239
 31
0.0
 12
6081.949152470218
 22
5034.784476358073
 32
0.0
 13
6081.949152470218
 23
5034.784476358073
 33
0.0
  0
SOLID
  5
65C
330
460
100
AcDbEntity
  8
HATCH
  6
CONTINUOUS
 62
     2
100
AcDbTrace
 10
5529.799579300462
 20
5054.50955142851
 30
0.0
 11
5536.925516066371
 21
5041.923878966239
 31
0.0
 12
6074.574030280143
 22
5046.738520130535
 32
0.0
 13
6074.574030280143
 23
5046.738520130535
 33
0.0
210
0.0
220
0.0
230
1.0
  0
SOLID
  5
65D
330
460
100
AcDbEntity
  8
HATCH
  6
CONTINUOUS
 62
     2
100
AcDbTrace
 10
6066.958547219192
 20
5058.07371059129
 30
0.0
 11
5529.799579300462
 21
5054.50955142851
 31
0.0
 12
6074.574030280143
 22
5046.738520130535
 32
0.0
 13
6074.574030280143
 23
5046.738520130535
 33
0.0
210
0.0
220
0.0
230
1.0
  0
SOLID
  5
65E
330
460
100
AcDbEntity
  8
HATCH
  6
CONTINUOUS
 62
     2
100
AcDbTrace
 10
5522.419678511067
 20
5066.495514378941
 30
0.0
 11
5529.799579300462
 21
5054.50955142851
 31
0.0
 12
6066.958547219192
 22
5058.07371059129
 32
0.0
 13
6066.958547219192
 23
5058.07371059129
 33
0.0
210
0.0
220
0.0
230
1.0
  0
SOLID
  5
65F
330
460
100
AcDbEntity
  8
HATCH
  6
CONTINUOUS
 62
     2
100
AcDbTrace
 10
6059.115676560461
 20
5068.770737800275
 30
0.0
 11
5522.419678511067
 21
5066.495514378941
 31
0.0
 12
6066.958547219192
 22
5058.07371059129
 32
0.0
 13
6066.958547219192
 23
5058.07371059129
 33
0.0
210
0.0
220
0.0
230
1.0
  0
SOLID
  5
660
330
460
100
AcDbEntity
  8
HATCH
  6
CONTINUOUS
 62
     2
100
AcDbTrace
 10
5514.798422134884
 20
5077.861290000889
 30
0.0
 11
5522.419678511067
 21
5066.495514378941
 31
0.0
 12
6059.115676560461
 22
5068.770737800275
 32
0.0
 13
6059.115676560461
 23
5068.770737800275
 33
0.0
  0
SOLID
  5
661
330
460
100
AcDbEntity
  8
HATCH
  6
CONTINUOUS
 62
     2
100
AcDbTrace
 10
6051.058778940708
 20
5078.811378953476
 30
0.0
 11
5514.798422134884
 21
5077.861290000889
 31
0.0
 12
6059.115676560461
 22
5068.770737800275
 32
0.0
 13
6059.115676560461
 23
5068.770737800275
 33
0.0
210
0.0
220
0.0
230
1.0
  0
SOLID
  5
662
330
460
100
AcDbEntity
  8
HATCH
  6
CONTINUOUS
 62
     2
100
AcDbTrace
 10
6042.801579599985
 20
5088.178529426185
 30
0.0
 11
5514.798422134884
 21
5077.861290000889
 31
0.0
 12
6051.058778940708
 22
5078.811378953476
 32
0.0
 13
6051.058778940708
 23
5078.811378953476
 33
0.0
210
0.0
220
0.0
230
1.0
  0
SOLID
  5
663
330
460
100
AcDbEntity
  8
HATCH
  6
CONTINUOUS
 62
     2
100
AcDbTrace
 10
5506.948830960593
 20
5088.587460057363
 30
0.0
 11
5514.798422134884
 21
5077.861290000889
 31
0.0
 12
6042.801579599985
 22
5088.178529426185
 32
0.0
 13
6042.801579599985
 23
5088.178529426185
 33
0.0
210
0.0
220
0.0
230
1.0
  0
SOLID
  5
664
330
460
100
AcDbEntity
  8
HATCH
  6
CONTINUOUS
 62
     2
100
AcDbTrace
 10
6034.358145000158
 20
5096.856231911393
 30
0.0
 11
5506.948830960593
 21
5088.587460057363
 31
0.0
 12
6042.801579599985
 22
5088.178529426185
 32
0.0
 13
6042.801579599985
 23
5088.178529426185
 33
0.0
210
0.0
220
0.0
230
1.0
  0
SOLID
  5
665
330
460
100
AcDbEntity
  8
HATCH
  6
CONTINUOUS
 62
     2
100
AcDbTrace
 10
5498.88431588304
 20
5098.655699066746
 30
0.0
 11
5506.948830960593
 21
5088.587460057363
 31
0.0
 12
6034.358145000158
 22
5096.856231911393
 32
0.0
 13
6034.358145000158
 23
5096.856231911393
 33
0.0
210
0.0
220
0.0
230
1.0
  0
SOLID
  5
666
330
460
100
AcDbEntity
  8
HATCH
  6
CONTINUOUS
 62
     2
100
AcDbTrace
 10
6025.742858862132
 20
5104.829703603693
 30
0.0
 11
5498.88431588304
 21
5098.655699066746
 31
0.0
 12
6034.358145000158
 22
5096.856231911393
 32
0.0
 13
6034.358145000158
 23
5096.856231911393
 33
0.0
  0
SOLID
  5
667
330
460
100
AcDbEntity
  8
HATCH
  6
CONTINUOUS
 62
     2
100
AcDbTrace
 10
5490.618654990956
 20
5108.048805611584
 30
0.0
 11
5498.88431588304
 21
5098.655699066746
 31
0.0
 12
6025.742858862132
 22
5104.829703603693
 32
0.0
 13
6025.742858862132
 23
5104.829703603693
 33
0.0
210
0.0
220
0.0
230
1.0
  0
SOLID
  5
668
330
460
100
AcDbEntity
  8
HATCH
  6
CONTINUOUS
 62
     2
100
AcDbTrace
 10
6016.970397662632
 20
5112.085361382359
 30
0.0
 11
5490.618654990956
 21
5108.048805611584
 31
0.0
 12
6025.742858862132
 22
5104.829703603693
 32
0.0
 13
6025.742858862132
 23
5104.829703603693
 33
0.0
  0
SOLID
  5
669
330
460
100
AcDbEntity
  8
HATCH
  6
CONTINUOUS
 62
     2
100
AcDbTrace
 10
5482.16597002732
 20
5116.750731726909
 30
0.0
 11
5490.618654990956
 21
5108.048805611584
 31
0.0
 12
6016.970397662632
 22
5112.085361382359
 32
0.0
 13
6016.970397662632
 23
5112.085361382359
 33
0.0
210
0.0
220
0.0
230
1.0
  0
SOLID
  5
66A
330
460
100
AcDbEntity
  8
HATCH
  6
CONTINUOUS
 62
     2
100
AcDbTrace
 10
6008.055705632239
 20
5118.61084495073
 30
0.0
 11
5482.16597002732
 21
5116.750731726909
 31
0.0
 12
6016.970397662632
 22
5112.085361382359
 32
0.0
 13
6016.970397662632
 23
5112.085361382359
 33
0.0
210
0.0
220
0.0
230
1.0
  0
SOLID
  5
66B
330
460
100
AcDbEntity
  8
HATCH
  6
CONTINUOUS
 62
     2
100
AcDbTrace
 10
5999.013969297317
 20
5124.395037892455
 30
0.0
 11
5482.16597002732
 21
5116.750731726909
 31
0.0
 12
6008.055705632239
 22
5118.61084495073
 32
0.0
 13
6008.055705632239
 23
5118.61084495073
 33
0.0
210
0.0
220
0.0
230
1.0
  0
SOLID
  5
66C
330
460
100
AcDbEntity
  8
HATCH
  6
CONTINUOUS
 62
     2
100
AcDbTrace
 10
5473.540702262605
 20
5124.746610317924
 30
0.0
 11
5482.16597002732
 21
5116.750731726909
 31
0.0
 12
5999.013969297317
 22
5124.395037892455
 32
0.0
 13
5999.013969297317
 23
5124.395037892455
 33
0.0
210
0.0
220
0.0
230
1.0
  0
SOLID
  5
66D
330
460
100
AcDbEntity
  8
HATCH
  6
CONTINUOUS
 62
     2
100
AcDbTrace
 10
5989.86059160917
 20
5129.428086608744
 30
0.0
 11
5473.540702262605
 21
5124.746610317924
 31
0.0
 12
5999.013969297317
 22
5124.395037892455
 32
0.0
 13
5999.013969297317
 23
5124.395037892455
 33
0.0
210
0.0
220
0.0
230
1.0
  0
SOLID
  5
66E
330
460
100
AcDbEntity
  8
HATCH
  6
CONTINUOUS
 62
     2
100
AcDbTrace
 10
5464.757587822099
 20
5132.022780560185
 30
0.0
 11
5473.540702262605
 21
5124.746610317924
 31
0.0
 12
5989.86059160917
 22
5129.428086608744
 32
0.0
 13
5989.86059160917
 23
5129.428086608744
 33
0.0
210
0.0
220
0.0
230
1.0
  0
SOLID
  5
66F
330
460
100
AcDbEntity
  8
HATCH
  6
CONTINUOUS
 62
     2
100
AcDbTrace
 10
5980.611165704509
 20
5133.701417104362
 30
0.0
 11
5464.757587822099
 21
5132.022780560185
 31
0.0
 12
5989.86059160917
 22
5129.428086608744
 32
0.0
 13
5989.86059160917
 23
5129.428086608744
 33
0.0
210
0.0
220
0.0
230
1.0
  0
SOLID
  5
670
330
460
100
AcDbEntity
  8
HATCH
  6
CONTINUOUS
 62
     2
100
AcDbTrace
 10
5971.281448341938
 20
5137.207749593756
 30
0.0
 11
5464.757587822099
 21
5132.022780560185
 31
0.0
 12
5980.611165704509
 22
5133.701417104362
 32
0.0
 13
5980.611165704509
 23
5133.701417104362
 33
0.0
210
0.0
220
0.0
230
1.0
  0
SOLID
  5
671
330
460
100
AcDbEntity
  8
HATCH
  6
CONTINUOUS
 62
     2
100
AcDbTrace
 10
5455.831632509493
 20
5138.566811238888
 30
0.0
 11
5464.757587822099
 21
5132.022780560185
 31
0.0
 12
5971.281448341938
 22
5137.207749593756
 32
0.0
 13
5971.281448341938
 23
5137.207749593756
 33
0.0
210
0.0
220
0.0
230
1.0
  0
SOLID
  5
672
330
460
100
AcDbEntity
  8
HATCH
  6
CONTINUOUS
 62
     2
100
AcDbTrace
 10
5961.887333059697
 20
5139.941110902462
 30
0.0
 11
5455.831632509493
 21
5138.566811238888
 31
0.0
 12
5971.281448341938
 22
5137.207749593756
 32
0.0
 13
5971.281448341938
 23
5137.207749593756
 33
0.0
210
0.0
220
0.0
230
1.0
  0
SOLID
  5
673
330
460
100
AcDbEntity
  8
HATCH
  6
CONTINUOUS
 62
     2
100
AcDbTrace
 10
5952.444823100401
 20
5141.896844642639
 30
0.0
 11
5455.831632509493
 21
5138.566811238888
 31
0.0
 12
5961.887333059697
 22
5139.941110902462
 32
0.0
 13
5961.887333059697
 23
5139.941110902462
 33
0.0
210
0.0
220
0.0
230
1.0
  0
SOLID
  5
674
330
460
100
AcDbEntity
  8
HATCH
  6
CONTINUOUS
 62
     2
100
AcDbTrace
 10
5942.970004148891
 20
5143.071619145407
 30
0.0
 11
5455.831632509493
 21
5138.566811238888
 31
0.0
 12
5952.444823100401
 22
5141.896844642639
 32
0.0
 13
5952.444823100401
 23
5141.896844642639
 33
0.0
210
0.0
220
0.0
230
1.0
  0
SOLID
  5
675
330
460
100
AcDbEntity
  8
HATCH
  6
CONTINUOUS
 62
     2
100
AcDbTrace
 10
5631.150754592308
 20
5143.463433136481
 30
0.0
 11
5455.831632509493
 21
5138.566811238888
 31
0.0
 12
5942.970004148891
 22
5143.071619145407
 32
0.0
 13
5942.970004148891
 23
5143.071619145407
 33
0.0
210
0.0
220
0.0
230
1.0
  0
SOLID
  5
676
330
460
100
AcDbEntity
  8
HATCH
  6
CONTINUOUS
 62
     2
100
AcDbTrace
 10
5933.479016929631
 20
5143.463433136481
 30
0.0
 11
5631.150754592308
 21
5143.463433136481
 31
0.0
 12
5942.970004148891
 22
5143.071619145407
 32
0.0
 13
5942.970004148891
 23
5143.071619145407
 33
0.0
210
0.0
220
0.0
230
1.0
  0
SOLID
  5
677
330
460
100
AcDbEntity
  8
HATCH
  6
CONTINUOUS
 62
     2
100
AcDbTrace
 10
5446.778086169707
 20
5144.367521987391
 30
0.0
 11
5455.831632509493
 21
5138.566811238888
 31
0.0
 12
5631.150754592308
 22
5143.463433136481
 32
0.0
 13
5631.150754592308
 23
5143.463433136481
 33
0.0
210
0.0
220
0.0
230
1.0
  0
SOLID
  5
678
330
460
100
AcDbEntity
  8
HATCH
  6
CONTINUOUS
 62
     2
100
AcDbTrace
 10
5437.612416634795
 20
5149.415002388685
 30
0.0
 11
5446.778086169707
 21
5144.367521987391
 31
0.0
 12
5631.150754592308
 22
5143.463433136481
 32
0.0
 13
5631.150754592308
 23
5143.463433136481
 33
0.0
  0
SOLID
  5
679
330
460
100
AcDbEntity
  8
HATCH
  6
CONTINUOUS
 62
     2
100
AcDbTrace
 10
5631.150754592301
 20
5151.135709742971
 30
0.0
 11
5437.612416634795
 21
5149.415002388685
 31
0.0
 12
5631.150754592308
 22
5143.463433136481
 32
0.0
 13
5631.150754592308
 23
5143.463433136481
 33
0.0
210
0.0
220
0.0
230
1.0
  0
SOLID
  5
67A
330
460
100
AcDbEntity
  8
HATCH
  6
CONTINUOUS
 62
     2
100
AcDbTrace
 10
5428.350283297405
 20
5153.700628907176
 30
0.0
 11
5437.612416634795
 21
5149.415002388685
 31
0.0
 12
5631.150754592301
 22
5151.135709742971
 32
0.0
 13
5631.150754592301
 23
5151.135709742971
 33
0.0
210
0.0
220
0.0
230
1.0
  0
SOLID
  5
67B
330
460
100
AcDbEntity
  8
HATCH
  6
CONTINUOUS
 62
     2
100
AcDbTrace
 10
5631.150754592301
 20
5154.595066104462
 30
0.0
 11
5428.350283297405
 21
5153.700628907176
 31
0.0
 12
5631.150754592301
 22
5151.135709742971
 32
0.0
 13
5631.150754592301
 23
5151.135709742971
 33
0.0
210
0.0
220
0.0
230
1.0
  0
SOLID
  5
67C
330
460
100
AcDbEntity
  8
HATCH
  6
CONTINUOUS
 62
     2
100
AcDbTrace
 10
5419.007510356975
 20
5157.217079621844
 30
0.0
 11
5428.350283297405
 21
5153.700628907176
 31
0.0
 12
5631.150754592301
 22
5154.595066104462
 32
0.0
 13
5631.150754592301
 23
5154.595066104462
 33
0.0
210
0.0
220
0.0
230
1.0
  0
SOLID
  5
67D
330
460
100
AcDbEntity
  8
HATCH
  6
CONTINUOUS
 62
     2
100
AcDbTrace
 10
5631.1507545923
 20
5157.62673561304
 30
0.0
 11
5419.007510356975
 21
5157.217079621844
 31
0.0
 12
5631.150754592301
 22
5154.595066104462
 32
0.0
 13
5631.150754592301
 23
5154.595066104462
 33
0.0
210
0.0
220
0.0
230
1.0
  0
SOLID
  5
67E
330
460
100
AcDbEntity
  8
HATCH
  6
CONTINUOUS
 62
     2
100
AcDbTrace
 10
5409.600059784354
 20
5159.95834673563
 30
0.0
 11
5419.007510356975
 21
5157.217079621844
 31
0.0
 12
5631.1507545923
 22
5157.62673561304
 32
0.0
 13
5631.1507545923
 23
5157.62673561304
 33
0.0
210
0.0
220
0.0
230
1.0
  0
SOLID
  5
67F
330
460
100
AcDbEntity
  8
HATCH
  6
CONTINUOUS
 62
     2
100
AcDbTrace
 10
5631.150754592297
 20
5160.116329212869
 30
0.0
 11
5409.600059784354
 21
5159.95834673563
 31
0.0
 12
5631.1507545923
 22
5157.62673561304
 32
0.0
 13
5631.1507545923
 23
5157.62673561304
 33
0.0
210
0.0
220
0.0
230
1.0
  0
SOLID
  5
680
330
460
100
AcDbEntity
  8
HATCH
  6
CONTINUOUS
 62
     2
100
AcDbTrace
 10
5400.144004051039
 20
5161.919746839656
 30
0.0
 11
5409.600059784354
 21
5159.95834673563
 31
0.0
 12
5631.150754592297
 22
5160.116329212869
 32
0.0
 13
5631.150754592297
 23
5160.116329212869
 33
0.0
210
0.0
220
0.0
230
1.0
  0
SOLID
  5
681
330
460
100
AcDbEntity
  8
HATCH
  6
CONTINUOUS
 62
     2
100
AcDbTrace
 10
5631.150754592296
 20
5161.966333762673
 30
0.0
 11
5400.144004051039
 21
5161.919746839656
 31
0.0
 12
5631.150754592297
 22
5160.116329212869
 32
0.0
 13
5631.150754592297
 23
5160.116329212869
 33
0.0
210
0.0
220
0.0
230
1.0
  0
SOLID
  5
682
330
460
100
AcDbEntity
  8
HATCH
  6
CONTINUOUS
 62
     2
100
AcDbTrace
 10
5390.655498669628
 20
5163.097928914744
 30
0.0
 11
5400.144004051039
 21
5161.919746839656
 31
0.0
 12
5631.150754592296
 22
5161.966333762673
 32
0.0
 13
5631.150754592296
 23
5161.966333762673
 33
0.0
210
0.0
220
0.0
230
1.0
  0
SOLID
  5
683
330
460
100
AcDbEntity
  8
HATCH
  6
CONTINUOUS
 62
     2
100
AcDbTrace
 10
5631.150754592295
 20
5163.106032787745
 30
0.0
 11
5390.655498669628
 21
5163.097928914744
 31
0.0
 12
5631.150754592296
 22
5161.966333762673
 32
0.0
 13
5631.150754592296
 23
5161.966333762673
 33
0.0
210
0.0
220
0.0
230
1.0
  0
SOLID
  5
684
330
460
100
AcDbEntity
  8
HATCH
  6
CONTINUOUS
 62
     2
100
AcDbTrace
 10
5381.150754592399
 20
5163.490880056584
 30
0.0
 11
5390.655498669628
 21
5163.097928914744
 31
0.0
 12
5631.150754592295
 22
5163.106032787745
 32
0.0
 13
5631.150754592295
 23
5163.106032787745
 33
0.0
210
0.0
220
0.0
230
1.0
  0
SOLID
  5
685
330
460
100
AcDbEntity
  8
HATCH
  6
CONTINUOUS
 62
     2
100
AcDbTrace
 10
5631.150754592294
 20
5163.490880056635
 30
0.0
 11
5381.150754592399
 21
5163.490880056584
 31
0.0
 12
5631.150754592295
 22
5163.106032787745
 32
0.0
 13
5631.150754592295
 23
5163.106032787745
 33
0.0
210
0.0
220
0.0
230
1.0
  0
ENDBLK
  5
687
330
460
100
AcDbEntity
  8
0
100
AcDbBlockEnd
  0
BLOCK
  5
721
330
688
100
AcDbEntity
  8
0
100
AcDbBlockBegin
  2
*U3
 70
     1
 10
0.0
 20
0.0
 30
0.0
  3
*U3
  1

  0
SOLID
  5
689
330
688
100
AcDbEntity
  8
HATCH
  6
CONTINUOUS
 62
     2
100
AcDbTrace
 10
4351.425014128378
 20
4243.883831198405
 30
0.0
 11
4158.907568158605
 21
4243.490880056576
 31
0.0
 12
4341.920270051152
 22
4243.490880056564
 32
0.0
 13
4341.920270051152
 23
4243.490880056564
 33
0.0
210
0.0
220
0.0
230
1.0
  0
SOLID
  5
68A
330
688
100
AcDbEntity
  8
HATCH
  6
CONTINUOUS
 62
     2
100
AcDbTrace
 10
4175.370267813644
 20
4243.883831198455
 30
0.0
 11
4158.907568158605
 21
4243.490880056576
 31
0.0
 12
4351.425014128378
 22
4243.883831198405
 32
0.0
 13
4351.425014128378
 23
4243.883831198405
 33
0.0
210
0.0
220
0.0
230
1.0
  0
SOLID
  5
68B
330
688
100
AcDbEntity
  8
HATCH
  6
CONTINUOUS
 62
     2
100
AcDbTrace
 10
4360.913519509787
 20
4245.062013273494
 30
0.0
 11
4175.370267813644
 21
4243.883831198455
 31
0.0
 12
4351.425014128378
 22
4243.883831198405
 32
0.0
 13
4351.425014128378
 23
4243.883831198405
 33
0.0
  0
SOLID
  5
68C
330
688
100
AcDbEntity
  8
HATCH
  6
CONTINUOUS
 62
     2
100
AcDbTrace
 10
4191.804841222135
 20
4245.062013273545
 30
0.0
 11
4175.370267813644
 21
4243.883831198455
 31
0.0
 12
4360.913519509787
 22
4245.062013273494
 32
0.0
 13
4360.913519509787
 23
4245.062013273494
 33
0.0
210
0.0
220
0.0
230
1.0
  0
SOLID
  5
68D
330
688
100
AcDbEntity
  8
HATCH
  6
CONTINUOUS
 62
     2
100
AcDbTrace
 10
4370.369575243099
 20
4247.023413377521
 30
0.0
 11
4191.804841222135
 21
4245.062013273545
 31
0.0
 12
4360.913519509787
 22
4245.062013273494
 32
0.0
 13
4360.913519509787
 23
4245.062013273494
 33
0.0
210
0.0
220
0.0
230
1.0
  0
SOLID
  5
68E
330
688
100
AcDbEntity
  8
HATCH
  6
CONTINUOUS
 62
     2
100
AcDbTrace
 10
4208.183210191435
 20
4247.023413377575
 30
0.0
 11
4191.804841222135
 21
4245.062013273545
 31
0.0
 12
4370.369575243099
 22
4247.023413377521
 32
0.0
 13
4370.369575243099
 23
4247.023413377521
 33
0.0
210
0.0
220
0.0
230
1.0
  0
SOLID
  5
68F
330
688
100
AcDbEntity
  8
HATCH
  6
CONTINUOUS
 62
     2
100
AcDbTrace
 10
4379.777025815718
 20
4249.764680491308
 30
0.0
 11
4208.183210191435
 21
4247.023413377575
 31
0.0
 12
4370.369575243099
 22
4247.023413377521
 32
0.0
 13
4370.369575243099
 23
4247.023413377521
 33
0.0
210
0.0
220
0.0
230
1.0
  0
SOLID
  5
690
330
688
100
AcDbEntity
  8
HATCH
  6
CONTINUOUS
 62
     2
100
AcDbTrace
 10
4224.477392552905
 20
4249.764680491363
 30
0.0
 11
4208.183210191435
 21
4247.023413377575
 31
0.0
 12
4379.777025815718
 22
4249.764680491308
 32
0.0
 13
4379.777025815718
 23
4249.764680491308
 33
0.0
210
0.0
220
0.0
230
1.0
  0
SOLID
  5
691
330
688
100
AcDbEntity
  8
HATCH
  6
CONTINUOUS
 62
     2
100
AcDbTrace
 10
4389.119798756144
 20
4253.281131205977
 30
0.0
 11
4224.477392552905
 21
4249.764680491363
 31
0.0
 12
4379.777025815718
 22
4249.764680491308
 32
0.0
 13
4379.777025815718
 23
4249.764680491308
 33
0.0
210
0.0
220
0.0
230
1.0
  0
SOLID
  5
692
330
688
100
AcDbEntity
  8
HATCH
  6
CONTINUOUS
 62
     2
100
AcDbTrace
 10
4240.659549969302
 20
4253.281131206034
 30
0.0
 11
4224.477392552905
 21
4249.764680491363
 31
0.0
 12
4389.119798756144
 22
4253.281131205977
 32
0.0
 13
4389.119798756144
 23
4253.281131205977
 33
0.0
  0
SOLID
  5
693
330
688
100
AcDbEntity
  8
HATCH
  6
CONTINUOUS
 62
     2
100
AcDbTrace
 10
4398.381932093531
 20
4257.566757724467
 30
0.0
 11
4240.659549969302
 21
4253.281131206034
 31
0.0
 12
4389.119798756144
 22
4253.281131205977
 32
0.0
 13
4389.119798756144
 23
4253.281131205977
 33
0.0
210
0.0
220
0.0
230
1.0
  0
SOLID
  5
694
330
688
100
AcDbEntity
  8
HATCH
  6
CONTINUOUS
 62
     2
100
AcDbTrace
 10
4256.702035496135
 20
4257.566757724527
 30
0.0
 11
4240.659549969302
 21
4253.281131206034
 31
0.0
 12
4398.381932093531
 22
4257.566757724467
 32
0.0
 13
4398.381932093531
 23
4257.566757724467
 33
0.0
210
0.0
220
0.0
230
1.0
  0
SOLID
  5
695
330
688
100
AcDbEntity
  8
HATCH
  6
CONTINUOUS
 62
     2
100
AcDbTrace
 10
4407.547601628441
 20
4262.614238125762
 30
0.0
 11
4256.702035496135
 21
4257.566757724527
 31
0.0
 12
4398.381932093531
 22
4257.566757724467
 32
0.0
 13
4398.381932093531
 23
4257.566757724467
 33
0.0
210
0.0
220
0.0
230
1.0
  0
SOLID
  5
696
330
688
100
AcDbEntity
  8
HATCH
  6
CONTINUOUS
 62
     2
100
AcDbTrace
 10
4272.577440815985
 20
4262.614238125823
 30
0.0
 11
4256.702035496135
 21
4257.566757724527
 31
0.0
 12
4407.547601628441
 22
4262.614238125762
 32
0.0
 13
4407.547601628441
 23
4262.614238125762
 33
0.0
210
0.0
220
0.0
230
1.0
  0
SOLID
  5
697
330
688
100
AcDbEntity
  8
HATCH
  6
CONTINUOUS
 62
     2
100
AcDbTrace
 10
4416.601147968224
 20
4268.414948874266
 30
0.0
 11
4272.577440815985
 21
4262.614238125823
 31
0.0
 12
4407.547601628441
 22
4262.614238125762
 32
0.0
 13
4407.547601628441
 23
4262.614238125762
 33
0.0
210
0.0
220
0.0
230
1.0
  0
SOLID
  5
698
330
688
100
AcDbEntity
  8
HATCH
  6
CONTINUOUS
 62
     2
100
AcDbTrace
 10
4288.258643065167
 20
4268.414948874329
 30
0.0
 11
4272.577440815985
 21
4262.614238125823
 31
0.0
 12
4416.601147968224
 22
4268.414948874266
 32
0.0
 13
4416.601147968224
 23
4268.414948874266
 33
0.0
210
0.0
220
0.0
230
1.0
  0
SOLID
  5
699
330
688
100
AcDbEntity
  8
HATCH
  6
CONTINUOUS
 62
     2
100
AcDbTrace
 10
4425.527103280827
 20
4274.958979552969
 30
0.0
 11
4288.258643065167
 21
4268.414948874329
 31
0.0
 12
4416.601147968224
 22
4268.414948874266
 32
0.0
 13
4416.601147968224
 23
4268.414948874266
 33
0.0
210
0.0
220
0.0
230
1.0
  0
SOLID
  5
69A
330
688
100
AcDbEntity
  8
HATCH
  6
CONTINUOUS
 62
     2
100
AcDbTrace
 10
4303.718851172685
 20
4274.958979553034
 30
0.0
 11
4288.258643065167
 21
4268.414948874329
 31
0.0
 12
4425.527103280827
 22
4274.958979552969
 32
0.0
 13
4425.527103280827
 23
4274.958979552969
 33
0.0
210
0.0
220
0.0
230
1.0
  0
SOLID
  5
69B
330
688
100
AcDbEntity
  8
HATCH
  6
CONTINUOUS
 62
     2
100
AcDbTrace
 10
4434.310217721328
 20
4282.235149795229
 30
0.0
 11
4303.718851172685
 21
4274.958979553034
 31
0.0
 12
4425.527103280827
 22
4274.958979552969
 32
0.0
 13
4425.527103280827
 23
4274.958979552969
 33
0.0
210
0.0
220
0.0
230
1.0
  0
SOLID
  5
69C
330
688
100
AcDbEntity
  8
HATCH
  6
CONTINUOUS
 62
     2
100
AcDbTrace
 10
4318.931651632325
 20
4282.235149795297
 30
0.0
 11
4303.718851172685
 21
4274.958979553034
 31
0.0
 12
4434.310217721328
 22
4282.235149795229
 32
0.0
 13
4434.310217721328
 23
4282.235149795229
 33
0.0
210
0.0
220
0.0
230
1.0
  0
SOLID
  5
69D
330
688
100
AcDbEntity
  8
HATCH
  6
CONTINUOUS
 62
     2
100
AcDbTrace
 10
4442.935485486041
 20
4290.231028386245
 30
0.0
 11
4318.931651632325
 21
4282.235149795297
 31
0.0
 12
4434.310217721328
 22
4282.235149795229
 32
0.0
 13
4434.310217721328
 23
4282.235149795229
 33
0.0
210
0.0
220
0.0
230
1.0
  0
SOLID
  5
69E
330
688
100
AcDbEntity
  8
HATCH
  6
CONTINUOUS
 62
     2
100
AcDbTrace
 10
4333.871053629692
 20
4290.231028386314
 30
0.0
 11
4318.931651632325
 21
4282.235149795297
 31
0.0
 12
4442.935485486041
 22
4290.231028386245
 32
0.0
 13
4442.935485486041
 23
4290.231028386245
 33
0.0
  0
SOLID
  5
69F
330
688
100
AcDbEntity
  8
HATCH
  6
CONTINUOUS
 62
     2
100
AcDbTrace
 10
4451.388170449672
 20
4298.932954501569
 30
0.0
 11
4333.871053629692
 21
4290.231028386314
 31
0.0
 12
4442.935485486041
 22
4290.231028386245
 32
0.0
 13
4442.935485486041
 23
4290.231028386245
 33
0.0
210
0.0
220
0.0
230
1.0
  0
SOLID
  5
6A0
330
688
100
AcDbEntity
  8
HATCH
  6
CONTINUOUS
 62
     2
100
AcDbTrace
 10
4348.511533447074
 20
4298.93295450164
 30
0.0
 11
4333.871053629692
 21
4290.231028386314
 31
0.0
 12
4451.388170449672
 22
4298.932954501569
 32
0.0
 13
4451.388170449672
 23
4298.932954501569
 33
0.0
210
0.0
220
0.0
230
1.0
  0
SOLID
  5
6A1
330
688
100
AcDbEntity
  8
HATCH
  6
CONTINUOUS
 62
     2
100
AcDbTrace
 10
4459.653831341753
 20
4308.326061046407
 30
0.0
 11
4348.511533447074
 21
4298.93295450164
 31
0.0
 12
4451.388170449672
 22
4298.932954501569
 32
0.0
 13
4451.388170449672
 23
4298.932954501569
 33
0.0
210
0.0
220
0.0
230
1.0
  0
SOLID
  5
6A2
330
688
100
AcDbEntity
  8
HATCH
  6
CONTINUOUS
 62
     2
100
AcDbTrace
 10
4362.828078070292
 20
4308.326061046478
 30
0.0
 11
4348.511533447074
 21
4298.93295450164
 31
0.0
 12
4459.653831341753
 22
4308.326061046407
 32
0.0
 13
4459.653831341753
 23
4308.326061046407
 33
0.0
210
0.0
220
0.0
230
1.0
  0
SOLID
  5
6A3
330
688
100
AcDbEntity
  8
HATCH
  6
CONTINUOUS
 62
     2
100
AcDbTrace
 10
4467.718346419302
 20
4318.39430005579
 30
0.0
 11
4362.828078070292
 21
4308.326061046478
 31
0.0
 12
4459.653831341753
 22
4308.326061046407
 32
0.0
 13
4459.653831341753
 23
4308.326061046407
 33
0.0
210
0.0
220
0.0
230
1.0
  0
SOLID
  5
6A4
330
688
100
AcDbEntity
  8
HATCH
  6
CONTINUOUS
 62
     2
100
AcDbTrace
 10
4376.796227923012
 20
4318.394300055864
 30
0.0
 11
4362.828078070292
 21
4308.326061046478
 31
0.0
 12
4467.718346419302
 22
4318.39430005579
 32
0.0
 13
4467.718346419302
 23
4318.39430005579
 33
0.0
210
0.0
220
0.0
230
1.0
  0
SOLID
  5
6A5
330
688
100
AcDbEntity
  8
HATCH
  6
CONTINUOUS
 62
     2
100
AcDbTrace
 10
4475.567937593591
 20
4329.120470112263
 30
0.0
 11
4376.796227923012
 21
4318.394300055864
 31
0.0
 12
4467.718346419302
 22
4318.39430005579
 32
0.0
 13
4467.718346419302
 23
4318.39430005579
 33
0.0
210
0.0
220
0.0
230
1.0
  0
SOLID
  5
6A6
330
688
100
AcDbEntity
  8
HATCH
  6
CONTINUOUS
 62
     2
100
AcDbTrace
 10
4390.392118655522
 20
4329.120470112338
 30
0.0
 11
4376.796227923012
 21
4318.394300055864
 31
0.0
 12
4475.567937593591
 22
4329.120470112263
 32
0.0
 13
4475.567937593591
 23
4329.120470112263
 33
0.0
210
0.0
220
0.0
230
1.0
  0
SOLID
  5
6A7
330
688
100
AcDbEntity
  8
HATCH
  6
CONTINUOUS
 62
     2
100
AcDbTrace
 10
4483.189193969769
 20
4340.486245734211
 30
0.0
 11
4390.392118655522
 21
4329.120470112338
 31
0.0
 12
4475.567937593591
 22
4329.120470112263
 32
0.0
 13
4475.567937593591
 23
4329.120470112263
 33
0.0
210
0.0
220
0.0
230
1.0
  0
SOLID
  5
6A8
330
688
100
AcDbEntity
  8
HATCH
  6
CONTINUOUS
 62
     2
100
AcDbTrace
 10
4403.592521916568
 20
4340.486245734288
 30
0.0
 11
4390.392118655522
 21
4329.120470112338
 31
0.0
 12
4483.189193969769
 22
4340.486245734211
 32
0.0
 13
4483.189193969769
 23
4340.486245734211
 33
0.0
210
0.0
220
0.0
230
1.0
  0
SOLID
  5
6A9
330
688
100
AcDbEntity
  8
HATCH
  6
CONTINUOUS
 62
     2
100
AcDbTrace
 10
4490.569094759161
 20
4352.47220868464
 30
0.0
 11
4403.592521916568
 21
4340.486245734288
 31
0.0
 12
4483.189193969769
 22
4340.486245734211
 32
0.0
 13
4483.189193969769
 23
4340.486245734211
 33
0.0
210
0.0
220
0.0
230
1.0
  0
SOLID
  5
6AA
330
688
100
AcDbEntity
  8
HATCH
  6
CONTINUOUS
 62
     2
100
AcDbTrace
 10
4416.374885038613
 20
4352.472208684718
 30
0.0
 11
4403.592521916568
 21
4340.486245734288
 31
0.0
 12
4490.569094759161
 22
4352.47220868464
 32
0.0
 13
4490.569094759161
 23
4352.47220868464
 33
0.0
210
0.0
220
0.0
230
1.0
  0
SOLID
  5
6AB
330
688
100
AcDbEntity
  8
HATCH
  6
CONTINUOUS
 62
     2
100
AcDbTrace
 10
4497.695031525066
 20
4365.05788114691
 30
0.0
 11
4416.374885038613
 21
4352.472208684718
 31
0.0
 12
4490.569094759161
 22
4352.47220868464
 32
0.0
 13
4490.569094759161
 23
4352.47220868464
 33
0.0
210
0.0
220
0.0
230
1.0
  0
SOLID
  5
6AC
330
688
100
AcDbEntity
  8
HATCH
  6
CONTINUOUS
 62
     2
100
AcDbTrace
 10
4428.717369568681
 20
4365.05788114699
 30
0.0
 11
4416.374885038613
 21
4352.472208684718
 31
0.0
 12
4497.695031525066
 22
4365.05788114691
 32
0.0
 13
4497.695031525066
 23
4365.05788114691
 33
0.0
210
0.0
220
0.0
230
1.0
  0
SOLID
  5
6AD
330
688
100
AcDbEntity
  8
HATCH
  6
CONTINUOUS
 62
     2
100
AcDbTrace
 10
4504.554829724051
 20
4378.221760710738
 30
0.0
 11
4428.717369568681
 21
4365.05788114699
 31
0.0
 12
4497.695031525066
 22
4365.05788114691
 32
0.0
 13
4497.695031525066
 23
4365.05788114691
 33
0.0
210
0.0
220
0.0
230
1.0
  0
SOLID
  5
6AE
330
688
100
AcDbEntity
  8
HATCH
  6
CONTINUOUS
 62
     2
100
AcDbTrace
 10
4440.598888578991
 20
4378.221760710818
 30
0.0
 11
4428.717369568681
 21
4365.05788114699
 31
0.0
 12
4504.554829724051
 22
4378.221760710738
 32
0.0
 13
4504.554829724051
 23
4378.221760710738
 33
0.0
210
0.0
220
0.0
230
1.0
  0
SOLID
  5
6AF
330
688
100
AcDbEntity
  8
HATCH
  6
CONTINUOUS
 62
     2
100
AcDbTrace
 10
4511.136769505966
 20
4391.941357108708
 30
0.0
 11
4440.598888578991
 21
4378.221760710818
 31
0.0
 12
4504.554829724051
 22
4378.221760710738
 32
0.0
 13
4504.554829724051
 23
4378.221760710738
 33
0.0
210
0.0
220
0.0
230
1.0
  0
SOLID
  5
6B0
330
688
100
AcDbEntity
  8
HATCH
  6
CONTINUOUS
 62
     2
100
AcDbTrace
 10
4451.999142693624
 20
4391.94135710879
 30
0.0
 11
4440.598888578991
 21
4378.221760710818
 31
0.0
 12
4511.136769505966
 22
4391.941357108708
 32
0.0
 13
4511.136769505966
 23
4391.941357108708
 33
0.0
210
0.0
220
0.0
230
1.0
  0
SOLID
  5
6B1
330
688
100
AcDbEntity
  8
HATCH
  6
CONTINUOUS
 62
     2
100
AcDbTrace
 10
4517.429605737102
 20
4406.193230640517
 30
0.0
 11
4451.999142693624
 21
4391.94135710879
 31
0.0
 12
4511.136769505966
 22
4391.941357108708
 32
0.0
 13
4511.136769505966
 23
4391.941357108708
 33
0.0
  0
SOLID
  5
6B2
330
688
100
AcDbEntity
  8
HATCH
  6
CONTINUOUS
 62
     2
100
AcDbTrace
 10
4462.898654769659
 20
4406.193230640599
 30
0.0
 11
4451.999142693624
 21
4391.94135710879
 31
0.0
 12
4517.429605737102
 22
4406.193230640517
 32
0.0
 13
4517.429605737102
 23
4406.193230640517
 33
0.0
210
0.0
220
0.0
230
1.0
  0
SOLID
  5
6B3
330
688
100
AcDbEntity
  8
HATCH
  6
CONTINUOUS
 62
     2
100
AcDbTrace
 10
4523.422587212317
 20
4420.9530322193
 30
0.0
 11
4462.898654769659
 21
4406.193230640599
 31
0.0
 12
4517.429605737102
 22
4406.193230640517
 32
0.0
 13
4517.429605737102
 23
4406.193230640517
 33
0.0
210
0.0
220
0.0
230
1.0
  0
SOLID
  5
6B4
330
688
100
AcDbEntity
  8
HATCH
  6
CONTINUOUS
 62
     2
100
AcDbTrace
 10
4473.278803173548
 20
4420.953032219385
 30
0.0
 11
4462.898654769659
 21
4406.193230640599
 31
0.0
 12
4523.422587212317
 22
4420.9530322193
 32
0.0
 13
4523.422587212317
 23
4420.9530322193
 33
0.0
210
0.0
220
0.0
230
1.0
  0
SOLID
  5
6B5
330
688
100
AcDbEntity
  8
HATCH
  6
CONTINUOUS
 62
     2
100
AcDbTrace
 10
4529.105475023292
 20
4436.195544971656
 30
0.0
 11
4473.278803173548
 21
4420.953032219385
 31
0.0
 12
4523.422587212317
 22
4420.9530322193
 32
0.0
 13
4523.422587212317
 23
4420.9530322193
 33
0.0
210
0.0
220
0.0
230
1.0
  0
SOLID
  5
6B6
330
688
100
AcDbEntity
  8
HATCH
  6
CONTINUOUS
 62
     2
100
AcDbTrace
 10
4483.121853595869
 20
4436.195544971741
 30
0.0
 11
4473.278803173548
 21
4420.953032219385
 31
0.0
 12
4529.105475023292
 22
4436.195544971656
 32
0.0
 13
4529.105475023292
 23
4436.195544971656
 33
0.0
  0
SOLID
  5
6B7
330
688
100
AcDbEntity
  8
HATCH
  6
CONTINUOUS
 62
     2
100
AcDbTrace
 10
4534.468560051529
 20
4451.894727320232
 30
0.0
 11
4483.121853595869
 21
4436.195544971741
 31
0.0
 12
4529.105475023292
 22
4436.195544971656
 32
0.0
 13
4529.105475023292
 23
4436.195544971656
 33
0.0
210
0.0
220
0.0
230
1.0
  0
SOLID
  5
6B8
330
688
100
AcDbEntity
  8
HATCH
  6
CONTINUOUS
 62
     2
100
AcDbTrace
 10
4492.410989350085
 20
4451.894727320317
 30
0.0
 11
4483.121853595869
 21
4436.195544971741
 31
0.0
 12
4534.468560051529
 22
4451.894727320232
 32
0.0
 13
4534.468560051529
 23
4451.894727320232
 33
0.0
210
0.0
220
0.0
230
1.0
  0
SOLID
  5
6B9
330
688
100
AcDbEntity
  8
HATCH
  6
CONTINUOUS
 62
     2
100
AcDbTrace
 10
4539.502679556222
 20
4468.023757475331
 30
0.0
 11
4492.410989350085
 21
4451.894727320317
 31
0.0
 12
4534.468560051529
 22
4451.894727320232
 32
0.0
 13
4534.468560051529
 23
4451.894727320232
 33
0.0
210
0.0
220
0.0
230
1.0
  0
SOLID
  5
6BA
330
688
100
AcDbEntity
  8
HATCH
  6
CONTINUOUS
 62
     2
100
AcDbTrace
 10
4501.130340103584
 20
4468.023757475417
 30
0.0
 11
4492.410989350085
 21
4451.894727320317
 31
0.0
 12
4539.502679556222
 22
4468.023757475331
 32
0.0
 13
4539.502679556222
 23
4468.023757475331
 33
0.0
  0
SOLID
  5
6BB
330
688
100
AcDbEntity
  8
HATCH
  6
CONTINUOUS
 62
     2
100
AcDbTrace
 10
4544.199232828641
 20
4484.555079259493
 30
0.0
 11
4501.130340103584
 21
4468.023757475417
 31
0.0
 12
4539.502679556222
 22
4468.023757475331
 32
0.0
 13
4539.502679556222
 23
4468.023757475331
 33
0.0
210
0.0
220
0.0
230
1.0
  0
SOLID
  5
6BC
330
688
100
AcDbEntity
  8
HATCH
  6
CONTINUOUS
 62
     2
100
AcDbTrace
 10
4509.265008991866
 20
4484.555079259581
 30
0.0
 11
4501.130340103584
 21
4468.023757475417
 31
0.0
 12
4544.199232828641
 22
4484.555079259493
 32
0.0
 13
4544.199232828641
 23
4484.555079259493
 33
0.0
210
0.0
220
0.0
230
1.0
  0
SOLID
  5
6BD
330
688
100
AcDbEntity
  8
HATCH
  6
CONTINUOUS
 62
     2
100
AcDbTrace
 10
4548.550195886305
 20
4501.460449186756
 30
0.0
 11
4509.265008991866
 21
4484.555079259581
 31
0.0
 12
4544.199232828641
 22
4484.555079259493
 32
0.0
 13
4544.199232828641
 23
4484.555079259493
 33
0.0
210
0.0
220
0.0
230
1.0
  0
SOLID
  5
6BE
330
688
100
AcDbEntity
  8
HATCH
  6
CONTINUOUS
 62
     2
100
AcDbTrace
 10
4516.801098069591
 20
4501.460449186843
 30
0.0
 11
4509.265008991866
 21
4484.555079259581
 31
0.0
 12
4548.550195886305
 22
4501.460449186756
 32
0.0
 13
4548.550195886305
 23
4501.460449186756
 33
0.0
  0
SOLID
  5
6BF
330
688
100
AcDbEntity
  8
HATCH
  6
CONTINUOUS
 62
     2
100
AcDbTrace
 10
4552.548135181814
 20
4518.71098471618
 30
0.0
 11
4516.801098069591
 21
4501.460449186843
 31
0.0
 12
4548.550195886305
 22
4501.460449186756
 32
0.0
 13
4548.550195886305
 23
4501.460449186756
 33
0.0
210
0.0
220
0.0
230
1.0
  0
SOLID
  5
6C0
330
688
100
AcDbEntity
  8
HATCH
  6
CONTINUOUS
 62
     2
100
AcDbTrace
 10
4523.725732054987
 20
4518.710984716269
 30
0.0
 11
4516.801098069591
 21
4501.460449186843
 31
0.0
 12
4552.548135181814
 22
4518.71098471618
 32
0.0
 13
4552.548135181814
 23
4518.71098471618
 33
0.0
210
0.0
220
0.0
230
1.0
  0
SOLID
  5
6C1
330
688
100
AcDbEntity
  8
HATCH
  6
CONTINUOUS
 62
     2
100
AcDbTrace
 10
4556.186220302946
 20
4536.277213597184
 30
0.0
 11
4523.725732054987
 21
4518.710984716269
 31
0.0
 12
4552.548135181814
 22
4518.71098471618
 32
0.0
 13
4552.548135181814
 23
4518.71098471618
 33
0.0
  0
SOLID
  5
6C2
330
688
100
AcDbEntity
  8
HATCH
  6
CONTINUOUS
 62
     2
100
AcDbTrace
 10
4530.027080327044
 20
4536.277213597274
 30
0.0
 11
4523.725732054987
 21
4518.710984716269
 31
0.0
 12
4556.186220302946
 22
4536.277213597184
 32
0.0
 13
4556.186220302946
 23
4536.277213597184
 33
0.0
210
0.0
220
0.0
230
1.0
  0
SOLID
  5
6C3
330
688
100
AcDbEntity
  8
HATCH
  6
CONTINUOUS
 62
     2
100
AcDbTrace
 10
4559.458235642298
 20
4554.129124222391
 30
0.0
 11
4530.027080327044
 21
4536.277213597274
 31
0.0
 12
4556.186220302946
 22
4536.277213597184
 32
0.0
 13
4556.186220302946
 23
4536.277213597184
 33
0.0
210
0.0
220
0.0
230
1.0
  0
SOLID
  5
6C4
330
688
100
AcDbEntity
  8
HATCH
  6
CONTINUOUS
 62
     2
100
AcDbTrace
 10
4535.694377137945
 20
4554.12912422248
 30
0.0
 11
4530.027080327044
 21
4536.277213597274
 31
0.0
 12
4559.458235642298
 22
4554.129124222391
 32
0.0
 13
4559.458235642298
 23
4554.129124222391
 33
0.0
210
0.0
220
0.0
230
1.0
  0
SOLID
  5
6C5
330
688
100
AcDbEntity
  8
HATCH
  6
CONTINUOUS
 62
     2
100
AcDbTrace
 10
4562.358591016552
 20
4572.236216901957
 30
0.0
 11
4535.694377137945
 21
4554.12912422248
 31
0.0
 12
4559.458235642298
 22
4554.129124222391
 32
0.0
 13
4559.458235642298
 23
4554.129124222391
 33
0.0
210
0.0
220
0.0
230
1.0
  0
SOLID
  5
6C6
330
688
100
AcDbEntity
  8
HATCH
  6
CONTINUOUS
 62
     2
100
AcDbTrace
 10
4540.717940006152
 20
4572.236216902047
 30
0.0
 11
4535.694377137945
 21
4554.12912422248
 31
0.0
 12
4562.358591016552
 22
4572.236216901957
 32
0.0
 13
4562.358591016552
 23
4572.236216901957
 33
0.0
210
0.0
220
0.0
230
1.0
  0
SOLID
  5
6C7
330
688
100
AcDbEntity
  8
HATCH
  6
CONTINUOUS
 62
     2
100
AcDbTrace
 10
4564.882331217201
 20
4590.567555971778
 30
0.0
 11
4540.717940006152
 21
4572.236216902047
 31
0.0
 12
4562.358591016552
 22
4572.236216901957
 32
0.0
 13
4562.358591016552
 23
4572.236216901957
 33
0.0
210
0.0
220
0.0
230
1.0
  0
SOLID
  5
6C8
330
688
100
AcDbEntity
  8
HATCH
  6
CONTINUOUS
 62
     2
100
AcDbTrace
 10
4545.089186258779
 20
4590.567555971868
 30
0.0
 11
4540.717940006152
 21
4572.236216902047
 31
0.0
 12
4564.882331217201
 22
4590.567555971778
 32
0.0
 13
4564.882331217201
 23
4590.567555971778
 33
0.0
  0
SOLID
  5
6C9
330
688
100
AcDbEntity
  8
HATCH
  6
CONTINUOUS
 62
     2
100
AcDbTrace
 10
4567.025144476447
 20
4609.091822646552
 30
0.0
 11
4545.089186258779
 21
4590.567555971868
 31
0.0
 12
4564.882331217201
 22
4590.567555971778
 32
0.0
 13
4564.882331217201
 23
4590.567555971778
 33
0.0
210
0.0
220
0.0
230
1.0
  0
SOLID
  5
6CA
330
688
100
AcDbEntity
  8
HATCH
  6
CONTINUOUS
 62
     2
100
AcDbTrace
 10
4548.800647694922
 20
4609.091822646643
 30
0.0
 11
4545.089186258779
 21
4590.567555971868
 31
0.0
 12
4567.025144476447
 22
4609.091822646552
 32
0.0
 13
4567.025144476447
 23
4609.091822646552
 33
0.0
  0
SOLID
  5
6CB
330
688
100
AcDbEntity
  8
HATCH
  6
CONTINUOUS
 62
     2
100
AcDbTrace
 10
4568.783369833783
 20
4627.777368527406
 30
0.0
 11
4548.800647694922
 21
4609.091822646643
 31
0.0
 12
4567.025144476447
 22
4609.091822646552
 32
0.0
 13
4567.025144476447
 23
4609.091822646552
 33
0.0
  0
SOLID
  5
6CC
330
688
100
AcDbEntity
  8
HATCH
  6
CONTINUOUS
 62
     2
100
AcDbTrace
 10
4551.84598334498
 20
4627.777368527498
 30
0.0
 11
4548.800647694922
 21
4609.091822646643
 31
0.0
 12
4568.783369833783
 22
4627.777368527406
 32
0.0
 13
4568.783369833783
 23
4627.777368527406
 33
0.0
210
0.0
220
0.0
230
1.0
  0
SOLID
  5
6CD
330
688
100
AcDbEntity
  8
HATCH
  6
CONTINUOUS
 62
     2
100
AcDbTrace
 10
4570.154003390679
 20
4646.592269672645
 30
0.0
 11
4551.84598334498
 21
4627.777368527498
 31
0.0
 12
4568.783369833783
 22
4627.777368527406
 32
0.0
 13
4568.783369833783
 23
4627.777368527406
 33
0.0
210
0.0
220
0.0
230
1.0
  0
SOLID
  5
6CE
330
688
100
AcDbEntity
  8
HATCH
  6
CONTINUOUS
 62
     2
100
AcDbTrace
 10
4554.219990304079
 20
4646.592269672736
 30
0.0
 11
4551.84598334498
 21
4627.777368527498
 31
0.0
 12
4570.154003390679
 22
4646.592269672645
 32
0.0
 13
4570.154003390679
 23
4646.592269672645
 33
0.0
210
0.0
220
0.0
230
1.0
  0
SOLID
  5
6CF
330
688
100
AcDbEntity
  8
HATCH
  6
CONTINUOUS
 62
     2
100
AcDbTrace
 10
4571.134703442694
 20
4665.504381139271
 30
0.0
 11
4554.219990304079
 21
4646.592269672736
 31
0.0
 12
4570.154003390679
 22
4646.592269672645
 32
0.0
 13
4570.154003390679
 23
4646.592269672645
 33
0.0
  0
SOLID
  5
6D0
330
688
100
AcDbEntity
  8
HATCH
  6
CONTINUOUS
 62
     2
100
AcDbTrace
 10
4555.918612621151
 20
4665.504381139363
 30
0.0
 11
4554.219990304079
 21
4646.592269672736
 31
0.0
 12
4571.134703442694
 22
4665.504381139271
 32
0.0
 13
4571.134703442694
 23
4665.504381139271
 33
0.0
210
0.0
220
0.0
230
1.0
  0
SOLID
  5
6D1
330
688
100
AcDbEntity
  8
HATCH
  6
CONTINUOUS
 62
     2
100
AcDbTrace
 10
4571.72379448024
 20
4684.481391902091
 30
0.0
 11
4555.918612621151
 21
4665.504381139363
 31
0.0
 12
4571.134703442694
 22
4665.504381139271
 32
0.0
 13
4571.134703442694
 23
4665.504381139271
 33
0.0
210
0.0
220
0.0
230
1.0
  0
SOLID
  5
6D2
330
688
100
AcDbEntity
  8
HATCH
  6
CONTINUOUS
 62
     2
100
AcDbTrace
 10
4556.938948228461
 20
4684.481391902181
 30
0.0
 11
4555.918612621151
 21
4665.504381139363
 31
0.0
 12
4571.72379448024
 22
4684.481391902091
 32
0.0
 13
4571.72379448024
 23
4684.481391902091
 33
0.0
210
0.0
220
0.0
230
1.0
  0
SOLID
  5
6D3
330
688
100
AcDbEntity
  8
HATCH
  6
CONTINUOUS
 62
     2
100
AcDbTrace
 10
4571.920270051162
 20
4703.490880056539
 30
0.0
 11
4556.938948228461
 21
4684.481391902181
 31
0.0
 12
4571.72379448024
 22
4684.481391902091
 32
0.0
 13
4571.72379448024
 23
4684.481391902091
 33
0.0
210
0.0
220
0.0
230
1.0
  0
SOLID
  5
6D4
330
688
100
AcDbEntity
  8
HATCH
  6
CONTINUOUS
 62
     2
100
AcDbTrace
 10
4557.279253899741
 20
4703.490880056635
 30
0.0
 11
4556.938948228461
 21
4684.481391902181
 31
0.0
 12
4571.920270051162
 22
4703.490880056539
 32
0.0
 13
4571.920270051162
 23
4703.490880056539
 33
0.0
210
0.0
220
0.0
230
1.0
  0
SOLID
  5
6D5
330
688
100
AcDbEntity
  8
HATCH
  6
CONTINUOUS
 62
     2
100
AcDbTrace
 10
4571.723794480243
 20
4722.500368210993
 30
0.0
 11
4557.279253899741
 21
4703.490880056635
 31
0.0
 12
4571.920270051162
 22
4703.490880056539
 32
0.0
 13
4571.920270051162
 23
4703.490880056539
 33
0.0
210
0.0
220
0.0
230
1.0
  0
SOLID
  5
6D6
330
688
100
AcDbEntity
  8
HATCH
  6
CONTINUOUS
 62
     2
100
AcDbTrace
 10
4556.93894822846
 20
4722.500368210998
 30
0.0
 11
4557.279253899741
 21
4703.490880056635
 31
0.0
 12
4571.723794480243
 22
4722.500368210993
 32
0.0
 13
4571.723794480243
 23
4722.500368210993
 33
0.0
210
0.0
220
0.0
230
1.0
  0
SOLID
  5
6D7
330
688
100
AcDbEntity
  8
HATCH
  6
CONTINUOUS
 62
     2
100
AcDbTrace
 10
4571.1347034427
 20
4741.477378973812
 30
0.0
 11
4556.93894822846
 21
4722.500368210998
 31
0.0
 12
4571.723794480243
 22
4722.500368210993
 32
0.0
 13
4571.723794480243
 23
4722.500368210993
 33
0.0
210
0.0
220
0.0
230
1.0
  0
SOLID
  5
6D8
330
688
100
AcDbEntity
  8
HATCH
  6
CONTINUOUS
 62
     2
100
AcDbTrace
 10
4555.918612621151
 20
4741.477378973818
 30
0.0
 11
4556.93894822846
 21
4722.500368210998
 31
0.0
 12
4571.1347034427
 22
4741.477378973812
 32
0.0
 13
4571.1347034427
 23
4741.477378973812
 33
0.0
210
0.0
220
0.0
230
1.0
  0
SOLID
  5
6D9
330
688
100
AcDbEntity
  8
HATCH
  6
CONTINUOUS
 62
     2
100
AcDbTrace
 10
4570.154003390688
 20
4760.389490440439
 30
0.0
 11
4555.918612621151
 21
4741.477378973818
 31
0.0
 12
4571.1347034427
 22
4741.477378973812
 32
0.0
 13
4571.1347034427
 23
4741.477378973812
 33
0.0
210
0.0
220
0.0
230
1.0
  0
SOLID
  5
6DA
330
688
100
AcDbEntity
  8
HATCH
  6
CONTINUOUS
 62
     2
100
AcDbTrace
 10
4554.219990304078
 20
4760.389490440444
 30
0.0
 11
4555.918612621151
 21
4741.477378973818
 31
0.0
 12
4570.154003390688
 22
4760.389490440439
 32
0.0
 13
4570.154003390688
 23
4760.389490440439
 33
0.0
210
0.0
220
0.0
230
1.0
  0
SOLID
  5
6DB
330
688
100
AcDbEntity
  8
HATCH
  6
CONTINUOUS
 62
     2
100
AcDbTrace
 10
4568.783369833794
 20
4779.204391585676
 30
0.0
 11
4554.219990304078
 21
4760.389490440444
 31
0.0
 12
4570.154003390688
 22
4760.389490440439
 32
0.0
 13
4570.154003390688
 23
4760.389490440439
 33
0.0
210
0.0
220
0.0
230
1.0
  0
SOLID
  5
6DC
330
688
100
AcDbEntity
  8
HATCH
  6
CONTINUOUS
 62
     2
100
AcDbTrace
 10
4551.845983344979
 20
4779.204391585682
 30
0.0
 11
4554.219990304078
 21
4760.389490440444
 31
0.0
 12
4568.783369833794
 22
4779.204391585676
 32
0.0
 13
4568.783369833794
 23
4779.204391585676
 33
0.0
210
0.0
220
0.0
230
1.0
  0
SOLID
  5
6DD
330
688
100
AcDbEntity
  8
HATCH
  6
CONTINUOUS
 62
     2
100
AcDbTrace
 10
4567.025144476462
 20
4797.889937466531
 30
0.0
 11
4551.845983344979
 21
4779.204391585682
 31
0.0
 12
4568.783369833794
 22
4779.204391585676
 32
0.0
 13
4568.783369833794
 23
4779.204391585676
 33
0.0
210
0.0
220
0.0
230
1.0
  0
SOLID
  5
6DE
330
688
100
AcDbEntity
  8
HATCH
  6
CONTINUOUS
 62
     2
100
AcDbTrace
 10
4548.800647694922
 20
4797.889937466536
 30
0.0
 11
4551.845983344979
 21
4779.204391585682
 31
0.0
 12
4567.025144476462
 22
4797.889937466531
 32
0.0
 13
4567.025144476462
 23
4797.889937466531
 33
0.0
210
0.0
220
0.0
230
1.0
  0
SOLID
  5
6DF
330
688
100
AcDbEntity
  8
HATCH
  6
CONTINUOUS
 62
     2
100
AcDbTrace
 10
4564.882331217218
 20
4816.414204141307
 30
0.0
 11
4548.800647694922
 21
4797.889937466536
 31
0.0
 12
4567.025144476462
 22
4797.889937466531
 32
0.0
 13
4567.025144476462
 23
4797.889937466531
 33
0.0
210
0.0
220
0.0
230
1.0
  0
SOLID
  5
6E0
330
688
100
AcDbEntity
  8
HATCH
  6
CONTINUOUS
 62
     2
100
AcDbTrace
 10
4545.089186258778
 20
4816.414204141313
 30
0.0
 11
4548.800647694922
 21
4797.889937466536
 31
0.0
 12
4564.882331217218
 22
4816.414204141307
 32
0.0
 13
4564.882331217218
 23
4816.414204141307
 33
0.0
  0
SOLID
  5
6E1
330
688
100
AcDbEntity
  8
HATCH
  6
CONTINUOUS
 62
     2
100
AcDbTrace
 10
4562.358591016572
 20
4834.745543211128
 30
0.0
 11
4545.089186258778
 21
4816.414204141313
 31
0.0
 12
4564.882331217218
 22
4816.414204141307
 32
0.0
 13
4564.882331217218
 23
4816.414204141307
 33
0.0
210
0.0
220
0.0
230
1.0
  0
SOLID
  5
6E2
330
688
100
AcDbEntity
  8
HATCH
  6
CONTINUOUS
 62
     2
100
AcDbTrace
 10
4540.717940006152
 20
4834.745543211133
 30
0.0
 11
4545.089186258778
 21
4816.414204141313
 31
0.0
 12
4562.358591016572
 22
4834.745543211128
 32
0.0
 13
4562.358591016572
 23
4834.745543211128
 33
0.0
210
0.0
220
0.0
230
1.0
  0
SOLID
  5
6E3
330
688
100
AcDbEntity
  8
HATCH
  6
CONTINUOUS
 62
     2
100
AcDbTrace
 10
4559.458235642321
 20
4852.852635890695
 30
0.0
 11
4540.717940006152
 21
4834.745543211133
 31
0.0
 12
4562.358591016572
 22
4834.745543211128
 32
0.0
 13
4562.358591016572
 23
4834.745543211128
 33
0.0
  0
SOLID
  5
6E4
330
688
100
AcDbEntity
  8
HATCH
  6
CONTINUOUS
 62
     2
100
AcDbTrace
 10
4535.694377137945
 20
4852.852635890699
 30
0.0
 11
4540.717940006152
 21
4834.745543211133
 31
0.0
 12
4559.458235642321
 22
4852.852635890695
 32
0.0
 13
4559.458235642321
 23
4852.852635890695
 33
0.0
210
0.0
220
0.0
230
1.0
  0
SOLID
  5
6E5
330
688
100
AcDbEntity
  8
HATCH
  6
CONTINUOUS
 62
     2
100
AcDbTrace
 10
4556.186220302971
 20
4870.704546515902
 30
0.0
 11
4535.694377137945
 21
4852.852635890699
 31
0.0
 12
4559.458235642321
 22
4852.852635890695
 32
0.0
 13
4559.458235642321
 23
4852.852635890695
 33
0.0
210
0.0
220
0.0
230
1.0
  0
SOLID
  5
6E6
330
688
100
AcDbEntity
  8
HATCH
  6
CONTINUOUS
 62
     2
100
AcDbTrace
 10
4530.027080327044
 20
4870.704546515906
 30
0.0
 11
4535.694377137945
 21
4852.852635890699
 31
0.0
 12
4556.186220302971
 22
4870.704546515902
 32
0.0
 13
4556.186220302971
 23
4870.704546515902
 33
0.0
  0
SOLID
  5
6E7
330
688
100
AcDbEntity
  8
HATCH
  6
CONTINUOUS
 62
     2
100
AcDbTrace
 10
4552.548135181843
 20
4888.270775396907
 30
0.0
 11
4530.027080327044
 21
4870.704546515906
 31
0.0
 12
4556.186220302971
 22
4870.704546515902
 32
0.0
 13
4556.186220302971
 23
4870.704546515902
 33
0.0
210
0.0
220
0.0
230
1.0
  0
SOLID
  5
6E8
330
688
100
AcDbEntity
  8
HATCH
  6
CONTINUOUS
 62
     2
100
AcDbTrace
 10
4523.725732054987
 20
4888.270775396911
 30
0.0
 11
4530.027080327044
 21
4870.704546515906
 31
0.0
 12
4552.548135181843
 22
4888.270775396907
 32
0.0
 13
4552.548135181843
 23
4888.270775396907
 33
0.0
210
0.0
220
0.0
230
1.0
  0
SOLID
  5
6E9
330
688
100
AcDbEntity
  8
HATCH
  6
CONTINUOUS
 62
     2
100
AcDbTrace
 10
4548.550195886336
 20
4905.521310926332
 30
0.0
 11
4523.725732054987
 21
4888.270775396911
 31
0.0
 12
4552.548135181843
 22
4888.270775396907
 32
0.0
 13
4552.548135181843
 23
4888.270775396907
 33
0.0
210
0.0
220
0.0
230
1.0
  0
SOLID
  5
6EA
330
688
100
AcDbEntity
  8
HATCH
  6
CONTINUOUS
 62
     2
100
AcDbTrace
 10
4516.801098069591
 20
4905.521310926336
 30
0.0
 11
4523.725732054987
 21
4888.270775396911
 31
0.0
 12
4548.550195886336
 22
4905.521310926332
 32
0.0
 13
4548.550195886336
 23
4905.521310926332
 33
0.0
210
0.0
220
0.0
230
1.0
  0
SOLID
  5
6EB
330
688
100
AcDbEntity
  8
HATCH
  6
CONTINUOUS
 62
     2
100
AcDbTrace
 10
4544.199232828675
 20
4922.426680853596
 30
0.0
 11
4516.801098069591
 21
4905.521310926336
 31
0.0
 12
4548.550195886336
 22
4905.521310926332
 32
0.0
 13
4548.550195886336
 23
4905.521310926332
 33
0.0
210
0.0
220
0.0
230
1.0
  0
SOLID
  5
6EC
330
688
100
AcDbEntity
  8
HATCH
  6
CONTINUOUS
 62
     2
100
AcDbTrace
 10
4509.265008991866
 20
4922.426680853599
 30
0.0
 11
4516.801098069591
 21
4905.521310926336
 31
0.0
 12
4544.199232828675
 22
4922.426680853596
 32
0.0
 13
4544.199232828675
 23
4922.426680853596
 33
0.0
210
0.0
220
0.0
230
1.0
  0
SOLID
  5
6ED
330
688
100
AcDbEntity
  8
HATCH
  6
CONTINUOUS
 62
     2
100
AcDbTrace
 10
4539.502679556258
 20
4938.958002637758
 30
0.0
 11
4509.265008991866
 21
4922.426680853599
 31
0.0
 12
4544.199232828675
 22
4922.426680853596
 32
0.0
 13
4544.199232828675
 23
4922.426680853596
 33
0.0
210
0.0
220
0.0
230
1.0
  0
SOLID
  5
6EE
330
688
100
AcDbEntity
  8
HATCH
  6
CONTINUOUS
 62
     2
100
AcDbTrace
 10
4501.130340103584
 20
4938.958002637763
 30
0.0
 11
4509.265008991866
 21
4922.426680853599
 31
0.0
 12
4539.502679556258
 22
4938.958002637758
 32
0.0
 13
4539.502679556258
 23
4938.958002637758
 33
0.0
210
0.0
220
0.0
230
1.0
  0
SOLID
  5
6EF
330
688
100
AcDbEntity
  8
HATCH
  6
CONTINUOUS
 62
     2
100
AcDbTrace
 10
4534.468560051567
 20
4955.087032792858
 30
0.0
 11
4501.130340103584
 21
4938.958002637763
 31
0.0
 12
4539.502679556258
 22
4938.958002637758
 32
0.0
 13
4539.502679556258
 23
4938.958002637758
 33
0.0
210
0.0
220
0.0
230
1.0
  0
SOLID
  5
6F0
330
688
100
AcDbEntity
  8
HATCH
  6
CONTINUOUS
 62
     2
100
AcDbTrace
 10
4492.410989350085
 20
4955.087032792864
 30
0.0
 11
4501.130340103584
 21
4938.958002637763
 31
0.0
 12
4534.468560051567
 22
4955.087032792858
 32
0.0
 13
4534.468560051567
 23
4955.087032792858
 33
0.0
210
0.0
220
0.0
230
1.0
  0
SOLID
  5
6F1
330
688
100
AcDbEntity
  8
HATCH
  6
CONTINUOUS
 62
     2
100
AcDbTrace
 10
4529.105475023333
 20
4970.786215141434
 30
0.0
 11
4492.410989350085
 21
4955.087032792864
 31
0.0
 12
4534.468560051567
 22
4955.087032792858
 32
0.0
 13
4534.468560051567
 23
4955.087032792858
 33
0.0
210
0.0
220
0.0
230
1.0
  0
SOLID
  5
6F2
330
688
100
AcDbEntity
  8
HATCH
  6
CONTINUOUS
 62
     2
100
AcDbTrace
 10
4483.121853595869
 20
4970.786215141438
 30
0.0
 11
4492.410989350085
 21
4955.087032792864
 31
0.0
 12
4529.105475023333
 22
4970.786215141434
 32
0.0
 13
4529.105475023333
 23
4970.786215141434
 33
0.0
  0
SOLID
  5
6F3
330
688
100
AcDbEntity
  8
HATCH
  6
CONTINUOUS
 62
     2
100
AcDbTrace
 10
4523.422587212359
 20
4986.028727893791
 30
0.0
 11
4483.121853595869
 21
4970.786215141438
 31
0.0
 12
4529.105475023333
 22
4970.786215141434
 32
0.0
 13
4529.105475023333
 23
4970.786215141434
 33
0.0
210
0.0
220
0.0
230
1.0
  0
SOLID
  5
6F4
330
688
100
AcDbEntity
  8
HATCH
  6
CONTINUOUS
 62
     2
100
AcDbTrace
 10
4473.278803173548
 20
4986.028727893796
 30
0.0
 11
4483.121853595869
 21
4970.786215141438
 31
0.0
 12
4523.422587212359
 22
4986.028727893791
 32
0.0
 13
4523.422587212359
 23
4986.028727893791
 33
0.0
  0
SOLID
  5
6F5
330
688
100
AcDbEntity
  8
HATCH
  6
CONTINUOUS
 62
     2
100
AcDbTrace
 10
4517.429605737146
 20
5000.788529472577
 30
0.0
 11
4473.278803173548
 21
4986.028727893796
 31
0.0
 12
4523.422587212359
 22
4986.028727893791
 32
0.0
 13
4523.422587212359
 23
4986.028727893791
 33
0.0
210
0.0
220
0.0
230
1.0
  0
SOLID
  5
6F6
330
688
100
AcDbEntity
  8
HATCH
  6
CONTINUOUS
 62
     2
100
AcDbTrace
 10
4462.898654769658
 20
5000.788529472581
 30
0.0
 11
4473.278803173548
 21
4986.028727893796
 31
0.0
 12
4517.429605737146
 22
5000.788529472577
 32
0.0
 13
4517.429605737146
 23
5000.788529472577
 33
0.0
210
0.0
220
0.0
230
1.0
  0
SOLID
  5
6F7
330
688
100
AcDbEntity
  8
HATCH
  6
CONTINUOUS
 62
     2
100
AcDbTrace
 10
4511.136769506014
 20
5015.040403004386
 30
0.0
 11
4462.898654769658
 21
5000.788529472581
 31
0.0
 12
4517.429605737146
 22
5000.788529472577
 32
0.0
 13
4517.429605737146
 23
5000.788529472577
 33
0.0
210
0.0
220
0.0
230
1.0
  0
SOLID
  5
6F8
330
688
100
AcDbEntity
  8
HATCH
  6
CONTINUOUS
 62
     2
100
AcDbTrace
 10
4451.999142693624
 20
5015.04040300439
 30
0.0
 11
4462.898654769658
 21
5000.788529472581
 31
0.0
 12
4511.136769506014
 22
5015.040403004386
 32
0.0
 13
4511.136769506014
 23
5015.040403004386
 33
0.0
210
0.0
220
0.0
230
1.0
  0
SOLID
  5
6F9
330
688
100
AcDbEntity
  8
HATCH
  6
CONTINUOUS
 62
     2
100
AcDbTrace
 10
4504.5548297241
 20
5028.759999402358
 30
0.0
 11
4451.999142693624
 21
5015.04040300439
 31
0.0
 12
4511.136769506014
 22
5015.040403004386
 32
0.0
 13
4511.136769506014
 23
5015.040403004386
 33
0.0
210
0.0
220
0.0
230
1.0
  0
SOLID
  5
6FA
330
688
100
AcDbEntity
  8
HATCH
  6
CONTINUOUS
 62
     2
100
AcDbTrace
 10
4440.598888578991
 20
5028.759999402361
 30
0.0
 11
4451.999142693624
 21
5015.04040300439
 31
0.0
 12
4504.5548297241
 22
5028.759999402358
 32
0.0
 13
4504.5548297241
 23
5028.759999402358
 33
0.0
210
0.0
220
0.0
230
1.0
  0
SOLID
  5
6FB
330
688
100
AcDbEntity
  8
HATCH
  6
CONTINUOUS
 62
     2
100
AcDbTrace
 10
4497.695031525117
 20
5041.923878966187
 30
0.0
 11
4440.598888578991
 21
5028.759999402361
 31
0.0
 12
4504.5548297241
 22
5028.759999402358
 32
0.0
 13
4504.5548297241
 23
5028.759999402358
 33
0.0
210
0.0
220
0.0
230
1.0
  0
SOLID
  5
6FC
330
688
100
AcDbEntity
  8
HATCH
  6
CONTINUOUS
 62
     2
100
AcDbTrace
 10
4428.717369568679
 20
5041.923878966191
 30
0.0
 11
4440.598888578991
 21
5028.759999402361
 31
0.0
 12
4497.695031525117
 22
5041.923878966187
 32
0.0
 13
4497.695031525117
 23
5041.923878966187
 33
0.0
210
0.0
220
0.0
230
1.0
  0
SOLID
  5
6FD
330
688
100
AcDbEntity
  8
HATCH
  6
CONTINUOUS
 62
     2
100
AcDbTrace
 10
4490.569094759215
 20
5054.509551428458
 30
0.0
 11
4428.717369568679
 21
5041.923878966191
 31
0.0
 12
4497.695031525117
 22
5041.923878966187
 32
0.0
 13
4497.695031525117
 23
5041.923878966187
 33
0.0
  0
SOLID
  5
6FE
330
688
100
AcDbEntity
  8
HATCH
  6
CONTINUOUS
 62
     2
100
AcDbTrace
 10
4416.374885038613
 20
5054.509551428463
 30
0.0
 11
4428.717369568679
 21
5041.923878966191
 31
0.0
 12
4490.569094759215
 22
5054.509551428458
 32
0.0
 13
4490.569094759215
 23
5054.509551428458
 33
0.0
210
0.0
220
0.0
230
1.0
  0
SOLID
  5
6FF
330
688
100
AcDbEntity
  8
HATCH
  6
CONTINUOUS
 62
     2
100
AcDbTrace
 10
4483.189193969823
 20
5066.495514378889
 30
0.0
 11
4416.374885038613
 21
5054.509551428463
 31
0.0
 12
4490.569094759215
 22
5054.509551428458
 32
0.0
 13
4490.569094759215
 23
5054.509551428458
 33
0.0
210
0.0
220
0.0
230
1.0
  0
SOLID
  5
700
330
688
100
AcDbEntity
  8
HATCH
  6
CONTINUOUS
 62
     2
100
AcDbTrace
 10
4403.592521916568
 20
5066.495514378893
 30
0.0
 11
4416.374885038613
 21
5054.509551428463
 31
0.0
 12
4483.189193969823
 22
5066.495514378889
 32
0.0
 13
4483.189193969823
 23
5066.495514378889
 33
0.0
210
0.0
220
0.0
230
1.0
  0
SOLID
  5
701
330
688
100
AcDbEntity
  8
HATCH
  6
CONTINUOUS
 62
     2
100
AcDbTrace
 10
4475.567937593647
 20
5077.861290000838
 30
0.0
 11
4403.592521916568
 21
5066.495514378893
 31
0.0
 12
4483.189193969823
 22
5066.495514378889
 32
0.0
 13
4483.189193969823
 23
5066.495514378889
 33
0.0
210
0.0
220
0.0
230
1.0
  0
SOLID
  5
702
330
688
100
AcDbEntity
  8
HATCH
  6
CONTINUOUS
 62
     2
100
AcDbTrace
 10
4390.392118655522
 20
5077.861290000842
 30
0.0
 11
4403.592521916568
 21
5066.495514378893
 31
0.0
 12
4475.567937593647
 22
5077.861290000838
 32
0.0
 13
4475.567937593647
 23
5077.861290000838
 33
0.0
210
0.0
220
0.0
230
1.0
  0
SOLID
  5
703
330
688
100
AcDbEntity
  8
HATCH
  6
CONTINUOUS
 62
     2
100
AcDbTrace
 10
4467.718346419361
 20
5088.587460057313
 30
0.0
 11
4390.392118655522
 21
5077.861290000842
 31
0.0
 12
4475.567937593647
 22
5077.861290000838
 32
0.0
 13
4475.567937593647
 23
5077.861290000838
 33
0.0
210
0.0
220
0.0
230
1.0
  0
SOLID
  5
704
330
688
100
AcDbEntity
  8
HATCH
  6
CONTINUOUS
 62
     2
100
AcDbTrace
 10
4376.796227923012
 20
5088.587460057317
 30
0.0
 11
4390.392118655522
 21
5077.861290000842
 31
0.0
 12
4467.718346419361
 22
5088.587460057313
 32
0.0
 13
4467.718346419361
 23
5088.587460057313
 33
0.0
210
0.0
220
0.0
230
1.0
  0
SOLID
  5
705
330
688
100
AcDbEntity
  8
HATCH
  6
CONTINUOUS
 62
     2
100
AcDbTrace
 10
4459.653831341813
 20
5098.655699066697
 30
0.0
 11
4376.796227923012
 21
5088.587460057317
 31
0.0
 12
4467.718346419361
 22
5088.587460057313
 32
0.0
 13
4467.718346419361
 23
5088.587460057313
 33
0.0
210
0.0
220
0.0
230
1.0
  0
SOLID
  5
706
330
688
100
AcDbEntity
  8
HATCH
  6
CONTINUOUS
 62
     2
100
AcDbTrace
 10
4362.828078070291
 20
5098.655699066701
 30
0.0
 11
4376.796227923012
 21
5088.587460057317
 31
0.0
 12
4459.653831341813
 22
5098.655699066697
 32
0.0
 13
4459.653831341813
 23
5098.655699066697
 33
0.0
210
0.0
220
0.0
230
1.0
  0
SOLID
  5
707
330
688
100
AcDbEntity
  8
HATCH
  6
CONTINUOUS
 62
     2
100
AcDbTrace
 10
4451.388170449734
 20
5108.048805611536
 30
0.0
 11
4362.828078070291
 21
5098.655699066701
 31
0.0
 12
4459.653831341813
 22
5098.655699066697
 32
0.0
 13
4459.653831341813
 23
5098.655699066697
 33
0.0
210
0.0
220
0.0
230
1.0
  0
SOLID
  5
708
330
688
100
AcDbEntity
  8
HATCH
  6
CONTINUOUS
 62
     2
100
AcDbTrace
 10
4348.511533447074
 20
5108.04880561154
 30
0.0
 11
4362.828078070291
 21
5098.655699066701
 31
0.0
 12
4451.388170449734
 22
5108.048805611536
 32
0.0
 13
4451.388170449734
 23
5108.048805611536
 33
0.0
210
0.0
220
0.0
230
1.0
  0
SOLID
  5
709
330
688
100
AcDbEntity
  8
HATCH
  6
CONTINUOUS
 62
     2
100
AcDbTrace
 10
4442.935485486103
 20
5116.750731726863
 30
0.0
 11
4348.511533447074
 21
5108.04880561154
 31
0.0
 12
4451.388170449734
 22
5108.048805611536
 32
0.0
 13
4451.388170449734
 23
5108.048805611536
 33
0.0
210
0.0
220
0.0
230
1.0
  0
SOLID
  5
70A
330
688
100
AcDbEntity
  8
HATCH
  6
CONTINUOUS
 62
     2
100
AcDbTrace
 10
4333.871053629692
 20
5116.750731726867
 30
0.0
 11
4348.511533447074
 21
5108.04880561154
 31
0.0
 12
4442.935485486103
 22
5116.750731726863
 32
0.0
 13
4442.935485486103
 23
5116.750731726863
 33
0.0
  0
SOLID
  5
70B
330
688
100
AcDbEntity
  8
HATCH
  6
CONTINUOUS
 62
     2
100
AcDbTrace
 10
4434.310217721392
 20
5124.746610317879
 30
0.0
 11
4333.871053629692
 21
5116.750731726867
 31
0.0
 12
4442.935485486103
 22
5116.750731726863
 32
0.0
 13
4442.935485486103
 23
5116.750731726863
 33
0.0
210
0.0
220
0.0
230
1.0
  0
SOLID
  5
70C
330
688
100
AcDbEntity
  8
HATCH
  6
CONTINUOUS
 62
     2
100
AcDbTrace
 10
4318.931651632325
 20
5124.746610317885
 30
0.0
 11
4333.871053629692
 21
5116.750731726867
 31
0.0
 12
4434.310217721392
 22
5124.746610317879
 32
0.0
 13
4434.310217721392
 23
5124.746610317879
 33
0.0
  0
SOLID
  5
70D
330
688
100
AcDbEntity
  8
HATCH
  6
CONTINUOUS
 62
     2
100
AcDbTrace
 10
4425.527103280891
 20
5132.022780560142
 30
0.0
 11
4318.931651632325
 21
5124.746610317885
 31
0.0
 12
4434.310217721392
 22
5124.746610317879
 32
0.0
 13
4434.310217721392
 23
5124.746610317879
 33
0.0
210
0.0
220
0.0
230
1.0
  0
SOLID
  5
70E
330
688
100
AcDbEntity
  8
HATCH
  6
CONTINUOUS
 62
     2
100
AcDbTrace
 10
4303.718851172685
 20
5132.022780560146
 30
0.0
 11
4318.931651632325
 21
5124.746610317885
 31
0.0
 12
4425.527103280891
 22
5132.022780560142
 32
0.0
 13
4425.527103280891
 23
5132.022780560142
 33
0.0
  0
SOLID
  5
70F
330
688
100
AcDbEntity
  8
HATCH
  6
CONTINUOUS
 62
     2
100
AcDbTrace
 10
4416.601147968289
 20
5138.566811238848
 30
0.0
 11
4303.718851172685
 21
5132.022780560146
 31
0.0
 12
4425.527103280891
 22
5132.022780560142
 32
0.0
 13
4425.527103280891
 23
5132.022780560142
 33
0.0
210
0.0
220
0.0
230
1.0
  0
SOLID
  5
710
330
688
100
AcDbEntity
  8
HATCH
  6
CONTINUOUS
 62
     2
100
AcDbTrace
 10
4288.258643065166
 20
5138.566811238852
 30
0.0
 11
4303.718851172685
 21
5132.022780560146
 31
0.0
 12
4416.601147968289
 22
5138.566811238848
 32
0.0
 13
4416.601147968289
 23
5138.566811238848
 33
0.0
210
0.0
220
0.0
230
1.0
  0
SOLID
  5
711
330
688
100
AcDbEntity
  8
HATCH
  6
CONTINUOUS
 62
     2
100
AcDbTrace
 10
4407.547601628507
 20
5144.367521987353
 30
0.0
 11
4288.258643065166
 21
5138.566811238852
 31
0.0
 12
4416.601147968289
 22
5138.566811238848
 32
0.0
 13
4416.601147968289
 23
5138.566811238848
 33
0.0
210
0.0
220
0.0
230
1.0
  0
SOLID
  5
712
330
688
100
AcDbEntity
  8
HATCH
  6
CONTINUOUS
 62
     2
100
AcDbTrace
 10
4272.577440815984
 20
5144.367521987357
 30
0.0
 11
4288.258643065166
 21
5138.566811238852
 31
0.0
 12
4407.547601628507
 22
5144.367521987353
 32
0.0
 13
4407.547601628507
 23
5144.367521987353
 33
0.0
  0
SOLID
  5
713
330
688
100
AcDbEntity
  8
HATCH
  6
CONTINUOUS
 62
     2
100
AcDbTrace
 10
4398.381932093598
 20
5149.41500238865
 30
0.0
 11
4272.577440815984
 21
5144.367521987357
 31
0.0
 12
4407.547601628507
 22
5144.367521987353
 32
0.0
 13
4407.547601628507
 23
5144.367521987353
 33
0.0
  0
SOLID
  5
714
330
688
100
AcDbEntity
  8
HATCH
  6
CONTINUOUS
 62
     2
100
AcDbTrace
 10
4256.702035496135
 20
5149.415002388654
 30
0.0
 11
4272.577440815984
 21
5144.367521987357
 31
0.0
 12
4398.381932093598
 22
5149.41500238865
 32
0.0
 13
4398.381932093598
 23
5149.41500238865
 33
0.0
210
0.0
220
0.0
230
1.0
  0
SOLID
  5
715
330
688
100
AcDbEntity
  8
HATCH
  6
CONTINUOUS
 62
     2
100
AcDbTrace
 10
4389.119798756211
 20
5153.700628907142
 30
0.0
 11
4256.702035496135
 21
5149.415002388654
 31
0.0
 12
4398.381932093598
 22
5149.41500238865
 32
0.0
 13
4398.381932093598
 23
5149.41500238865
 33
0.0
210
0.0
220
0.0
230
1.0
  0
SOLID
  5
716
330
688
100
AcDbEntity
  8
HATCH
  6
CONTINUOUS
 62
     2
100
AcDbTrace
 10
4240.659549969302
 20
5153.700628907146
 30
0.0
 11
4256.702035496135
 21
5149.415002388654
 31
0.0
 12
4389.119798756211
 22
5153.700628907142
 32
0.0
 13
4389.119798756211
 23
5153.700628907142
 33
0.0
210
0.0
220
0.0
230
1.0
  0
SOLID
  5
717
330
688
100
AcDbEntity
  8
HATCH
  6
CONTINUOUS
 62
     2
100
AcDbTrace
 10
4379.777025815786
 20
5157.217079621812
 30
0.0
 11
4240.659549969302
 21
5153.700628907146
 31
0.0
 12
4389.119798756211
 22
5153.700628907142
 32
0.0
 13
4389.119798756211
 23
5153.700628907142
 33
0.0
  0
SOLID
  5
718
330
688
100
AcDbEntity
  8
HATCH
  6
CONTINUOUS
 62
     2
100
AcDbTrace
 10
4224.477392552905
 20
5157.217079621815
 30
0.0
 11
4240.659549969302
 21
5153.700628907146
 31
0.0
 12
4379.777025815786
 22
5157.217079621812
 32
0.0
 13
4379.777025815786
 23
5157.217079621812
 33
0.0
210
0.0
220
0.0
230
1.0
  0
SOLID
  5
719
330
688
100
AcDbEntity
  8
HATCH
  6
CONTINUOUS
 62
     2
100
AcDbTrace
 10
4370.369575243168
 20
5159.958346735601
 30
0.0
 11
4224.477392552905
 21
5157.217079621815
 31
0.0
 12
4379.777025815786
 22
5157.217079621812
 32
0.0
 13
4379.777025815786
 23
5157.217079621812
 33
0.0
210
0.0
220
0.0
230
1.0
  0
SOLID
  5
71A
330
688
100
AcDbEntity
  8
HATCH
  6
CONTINUOUS
 62
     2
100
AcDbTrace
 10
4208.183210191435
 20
5159.958346735606
 30
0.0
 11
4224.477392552905
 21
5157.217079621815
 31
0.0
 12
4370.369575243168
 22
5159.958346735601
 32
0.0
 13
4370.369575243168
 23
5159.958346735601
 33
0.0
210
0.0
220
0.0
230
1.0
  0
SOLID
  5
71B
330
688
100
AcDbEntity
  8
HATCH
  6
CONTINUOUS
 62
     2
100
AcDbTrace
 10
4360.913519509856
 20
5161.919746839629
 30
0.0
 11
4208.183210191435
 21
5159.958346735606
 31
0.0
 12
4370.369575243168
 22
5159.958346735601
 32
0.0
 13
4370.369575243168
 23
5159.958346735601
 33
0.0
  0
SOLID
  5
71C
330
688
100
AcDbEntity
  8
HATCH
  6
CONTINUOUS
 62
     2
100
AcDbTrace
 10
4191.804841222135
 20
5161.919746839634
 30
0.0
 11
4208.183210191435
 21
5159.958346735606
 31
0.0
 12
4360.913519509856
 22
5161.919746839629
 32
0.0
 13
4360.913519509856
 23
5161.919746839629
 33
0.0
210
0.0
220
0.0
230
1.0
  0
SOLID
  5
71D
330
688
100
AcDbEntity
  8
HATCH
  6
CONTINUOUS
 62
     2
100
AcDbTrace
 10
4351.425014128447
 20
5163.09792891472
 30
0.0
 11
4191.804841222135
 21
5161.919746839634
 31
0.0
 12
4360.913519509856
 22
5161.919746839629
 32
0.0
 13
4360.913519509856
 23
5161.919746839629
 33
0.0
210
0.0
220
0.0
230
1.0
  0
SOLID
  5
71E
330
688
100
AcDbEntity
  8
HATCH
  6
CONTINUOUS
 62
     2
100
AcDbTrace
 10
4175.370267813644
 20
5163.097928914726
 30
0.0
 11
4191.804841222135
 21
5161.919746839634
 31
0.0
 12
4351.425014128447
 22
5163.09792891472
 32
0.0
 13
4351.425014128447
 23
5163.09792891472
 33
0.0
210
0.0
220
0.0
230
1.0
  0
SOLID
  5
71F
330
688
100
AcDbEntity
  8
HATCH
  6
CONTINUOUS
 62
     2
100
AcDbTrace
 10
4341.920270051224
 20
5163.490880056563
 30
0.0
 11
4175.370267813644
 21
5163.097928914726
 31
0.0
 12
4351.425014128447
 22
5163.09792891472
 32
0.0
 13
4351.425014128447
 23
5163.09792891472
 33
0.0
210
0.0
220
0.0
230
1.0
  0
SOLID
  5
720
330
688
100
AcDbEntity
  8
HATCH
  6
CONTINUOUS
 62
     2
100
AcDbTrace
 10
4158.907568158948
 20
5163.490880056569
 30
0.0
 11
4175.370267813644
 21
5163.097928914726
 31
0.0
 12
4341.920270051224
 22
5163.490880056563
 32
0.0
 13
4341.920270051224
 23
5163.490880056563
 33
0.0
210
0.0
220
0.0
230
1.0
  0
ENDBLK
  5
722
330
688
100
AcDbEntity
  8
0
100
AcDbBlockEnd
  0
BLOCK
  5
787
330
723
100
AcDbEntity
  8
0
100
AcDbBlockBegin
  2
*U4
 70
     1
 10
0.0
 20
0.0
 30
0.0
  3
*U4
  1

  0
SOLID
  5
724
330
723
100
AcDbEntity
  8
HATCH
  6
CONTINUOUS
 62
     2
100
AcDbTrace
 10
6431.222727186346
 20
4201.564656534219
 30
0.0
 11
6531.15075459261
 21
4201.564656530545
 31
0.0
 12
6581.15075459261
 22
4201.564656530567
 32
0.0
 13
6581.15075459261
 23
4201.564656530567
 33
0.0
210
0.0
220
0.0
230
1.0
  0
SOLID
  5
725
330
723
100
AcDbEntity
  8
HATCH
  6
CONTINUOUS
 62
     2
100
AcDbTrace
 10
6431.222727186346
 20
4201.564656534219
 30
0.0
 11
6431.565039402663
 21
4201.564656530499
 31
0.0
 12
6531.15075459261
 22
4201.564656530545
 32
0.0
 13
6531.15075459261
 23
4201.564656530545
 33
0.0
  0
SOLID
  5
726
330
723
100
AcDbEntity
  8
HATCH
  6
CONTINUOUS
 62
     2
100
AcDbTrace
 10
6431.150754592666
 20
4201.564656630501
 30
0.0
 11
6431.222727186346
 21
4201.564656534219
 31
0.0
 12
6581.15075459261
 22
4201.564656530567
 32
0.0
 13
6581.15075459261
 23
4201.564656530567
 33
0.0
210
0.0
220
0.0
230
1.0
  0
SOLID
  5
727
330
723
100
AcDbEntity
  8
HATCH
  6
CONTINUOUS
 62
     2
100
AcDbTrace
 10
5631.150754592721
 20
4243.49088005657
 30
0.0
 11
6431.150754592666
 21
4201.564656630501
 31
0.0
 12
6581.15075459261
 22
4201.564656530567
 32
0.0
 13
6581.15075459261
 23
4201.564656530567
 33
0.0
210
0.0
220
0.0
230
1.0
  0
SOLID
  5
728
330
723
100
AcDbEntity
  8
HATCH
  6
CONTINUOUS
 62
     2
100
AcDbTrace
 10
5631.150754592717
 20
4243.877503388648
 30
0.0
 11
5631.150754592721
 21
4243.49088005657
 31
0.0
 12
6581.15075459261
 22
4201.564656530567
 32
0.0
 13
6581.15075459261
 23
4201.564656530567
 33
0.0
  0
SOLID
  5
729
330
723
100
AcDbEntity
  8
HATCH
  6
CONTINUOUS
 62
     2
100
AcDbTrace
 10
5631.150754592717
 20
4245.022283354867
 30
0.0
 11
5631.150754592717
 21
4243.877503388648
 31
0.0
 12
6581.15075459261
 22
4201.564656530567
 32
0.0
 13
6581.15075459261
 23
4201.564656530567
 33
0.0
210
0.0
220
0.0
230
1.0
  0
SOLID
  5
72A
330
723
100
AcDbEntity
  8
HATCH
  6
CONTINUOUS
 62
     2
100
AcDbTrace
 10
5631.150754592717
 20
4246.875968957222
 30
0.0
 11
5631.150754592717
 21
4245.022283354867
 31
0.0
 12
6581.15075459261
 22
4201.564656530567
 32
0.0
 13
6581.15075459261
 23
4201.564656530567
 33
0.0
210
0.0
220
0.0
230
1.0
  0
SOLID
  5
72B
330
723
100
AcDbEntity
  8
HATCH
  6
CONTINUOUS
 62
     2
100
AcDbTrace
 10
5631.150754592717
 20
4249.367617420489
 30
0.0
 11
5631.150754592717
 21
4246.875968957222
 31
0.0
 12
6581.15075459261
 22
4201.564656530567
 32
0.0
 13
6581.15075459261
 23
4201.564656530567
 33
0.0
  0
SOLID
  5
72C
330
723
100
AcDbEntity
  8
HATCH
  6
CONTINUOUS
 62
     2
100
AcDbTrace
 10
5631.150754592717
 20
4252.402391502272
 30
0.0
 11
5631.150754592717
 21
4249.367617420489
 31
0.0
 12
6581.15075459261
 22
4201.564656530567
 32
0.0
 13
6581.15075459261
 23
4201.564656530567
 33
0.0
  0
SOLID
  5
72D
330
723
100
AcDbEntity
  8
HATCH
  6
CONTINUOUS
 62
     2
100
AcDbTrace
 10
5631.150754592716
 20
4255.862391274636
 30
0.0
 11
5631.150754592717
 21
4252.402391502272
 31
0.0
 12
6581.15075459261
 22
4201.564656530567
 32
0.0
 13
6581.15075459261
 23
4201.564656530567
 33
0.0
210
0.0
220
0.0
230
1.0
  0
SOLID
  5
72E
330
723
100
AcDbEntity
  8
HATCH
  6
CONTINUOUS
 62
     2
100
AcDbTrace
 10
5933.479016930122
 20
4263.518326976659
 30
0.0
 11
5631.150754592716
 21
4255.862391274636
 31
0.0
 12
6581.15075459261
 22
4201.564656530567
 32
0.0
 13
6581.15075459261
 23
4201.564656530567
 33
0.0
  0
SOLID
  5
72F
330
723
100
AcDbEntity
  8
HATCH
  6
CONTINUOUS
 62
     2
100
AcDbTrace
 10
5631.150754592709
 20
4263.518326976661
 30
0.0
 11
5631.150754592716
 21
4255.862391274636
 31
0.0
 12
5933.479016930122
 22
4263.518326976659
 32
0.0
 13
5933.479016930122
 23
4263.518326976659
 33
0.0
210
0.0
220
0.0
230
1.0
  0
SOLID
  5
730
330
723
100
AcDbEntity
  8
HATCH
  6
CONTINUOUS
 62
     2
100
AcDbTrace
 10
5942.970004149034
 20
4263.910140967669
 30
0.0
 11
5933.479016930122
 21
4263.518326976659
 31
0.0
 12
6581.15075459261
 22
4201.564656530567
 32
0.0
 13
6581.15075459261
 23
4201.564656530567
 33
0.0
210
0.0
220
0.0
230
1.0
  0
SOLID
  5
731
330
723
100
AcDbEntity
  8
HATCH
  6
CONTINUOUS
 62
     2
100
AcDbTrace
 10
5952.444823100598
 20
4265.084915470453
 30
0.0
 11
5942.970004149034
 21
4263.910140967669
 31
0.0
 12
6581.15075459261
 22
4201.564656530567
 32
0.0
 13
6581.15075459261
 23
4201.564656530567
 33
0.0
210
0.0
220
0.0
230
1.0
  0
SOLID
  5
732
330
723
100
AcDbEntity
  8
HATCH
  6
CONTINUOUS
 62
     2
100
AcDbTrace
 10
5961.887333059944
 20
4267.040649210652
 30
0.0
 11
5952.444823100598
 21
4265.084915470453
 31
0.0
 12
6581.15075459261
 22
4201.564656530567
 32
0.0
 13
6581.15075459261
 23
4201.564656530567
 33
0.0
210
0.0
220
0.0
230
1.0
  0
SOLID
  5
733
330
723
100
AcDbEntity
  8
HATCH
  6
CONTINUOUS
 62
     2
100
AcDbTrace
 10
5971.281448342234
 20
4269.77401051939
 30
0.0
 11
5961.887333059944
 21
4267.040649210652
 31
0.0
 12
6581.15075459261
 22
4201.564656530567
 32
0.0
 13
6581.15075459261
 23
4201.564656530567
 33
0.0
  0
SOLID
  5
734
330
723
100
AcDbEntity
  8
HATCH
  6
CONTINUOUS
 62
     2
100
AcDbTrace
 10
5980.611165704855
 20
4273.280343008823
 30
0.0
 11
5971.281448342234
 21
4269.77401051939
 31
0.0
 12
6581.15075459261
 22
4201.564656530567
 32
0.0
 13
6581.15075459261
 23
4201.564656530567
 33
0.0
210
0.0
220
0.0
230
1.0
  0
SOLID
  5
735
330
723
100
AcDbEntity
  8
HATCH
  6
CONTINUOUS
 62
     2
100
AcDbTrace
 10
5989.860591609564
 20
4277.55367350449
 30
0.0
 11
5980.611165704855
 21
4273.280343008823
 31
0.0
 12
6581.15075459261
 22
4201.564656530567
 32
0.0
 13
6581.15075459261
 23
4201.564656530567
 33
0.0
210
0.0
220
0.0
230
1.0
  0
SOLID
  5
736
330
723
100
AcDbEntity
  8
HATCH
  6
CONTINUOUS
 62
     2
100
AcDbTrace
 10
5999.013969297756
 20
4282.586722220837
 30
0.0
 11
5989.860591609564
 21
4277.55367350449
 31
0.0
 12
6581.15075459261
 22
4201.564656530567
 32
0.0
 13
6581.15075459261
 23
4201.564656530567
 33
0.0
210
0.0
220
0.0
230
1.0
  0
SOLID
  5
737
330
723
100
AcDbEntity
  8
HATCH
  6
CONTINUOUS
 62
     2
100
AcDbTrace
 10
6008.055705632721
 20
4288.370915162627
 30
0.0
 11
5999.013969297756
 21
4282.586722220837
 31
0.0
 12
6581.15075459261
 22
4201.564656530567
 32
0.0
 13
6581.15075459261
 23
4201.564656530567
 33
0.0
210
0.0
220
0.0
230
1.0
  0
SOLID
  5
738
330
723
100
AcDbEntity
  8
HATCH
  6
CONTINUOUS
 62
     2
100
AcDbTrace
 10
6016.970397663155
 20
4294.896398731069
 30
0.0
 11
6008.055705632721
 21
4288.370915162627
 31
0.0
 12
6581.15075459261
 22
4201.564656530567
 32
0.0
 13
6581.15075459261
 23
4201.564656530567
 33
0.0
210
0.0
220
0.0
230
1.0
  0
SOLID
  5
739
330
723
100
AcDbEntity
  8
HATCH
  6
CONTINUOUS
 62
     2
100
AcDbTrace
 10
6025.742858862694
 20
4302.152056509815
 30
0.0
 11
6016.970397663155
 21
4294.896398731069
 31
0.0
 12
6581.15075459261
 22
4201.564656530567
 32
0.0
 13
6581.15075459261
 23
4201.564656530567
 33
0.0
210
0.0
220
0.0
230
1.0
  0
SOLID
  5
73A
330
723
100
AcDbEntity
  8
HATCH
  6
CONTINUOUS
 62
     2
100
AcDbTrace
 10
6034.358145000754
 20
4310.125528202202
 30
0.0
 11
6025.742858862694
 21
4302.152056509815
 31
0.0
 12
6581.15075459261
 22
4201.564656530567
 32
0.0
 13
6581.15075459261
 23
4201.564656530567
 33
0.0
210
0.0
220
0.0
230
1.0
  0
SOLID
  5
73B
330
723
100
AcDbEntity
  8
HATCH
  6
CONTINUOUS
 62
     2
100
AcDbTrace
 10
6042.801579600615
 20
4318.803230687503
 30
0.0
 11
6034.358145000754
 21
4310.125528202202
 31
0.0
 12
6581.15075459261
 22
4201.564656530567
 32
0.0
 13
6581.15075459261
 23
4201.564656530567
 33
0.0
210
0.0
220
0.0
230
1.0
  0
SOLID
  5
73C
330
723
100
AcDbEntity
  8
HATCH
  6
CONTINUOUS
 62
     2
100
AcDbTrace
 10
6051.058778941367
 20
4328.170381160314
 30
0.0
 11
6042.801579600615
 21
4318.803230687503
 31
0.0
 12
6581.15075459261
 22
4201.564656530567
 32
0.0
 13
6581.15075459261
 23
4201.564656530567
 33
0.0
210
0.0
220
0.0
230
1.0
  0
SOLID
  5
73D
330
723
100
AcDbEntity
  8
HATCH
  6
CONTINUOUS
 62
     2
100
AcDbTrace
 10
6059.115676561145
 20
4338.211022313623
 30
0.0
 11
6051.058778941367
 21
4328.170381160314
 31
0.0
 12
6581.15075459261
 22
4201.564656530567
 32
0.0
 13
6581.15075459261
 23
4201.564656530567
 33
0.0
210
0.0
220
0.0
230
1.0
  0
SOLID
  5
73E
330
723
100
AcDbEntity
  8
HATCH
  6
CONTINUOUS
 62
     2
100
AcDbTrace
 10
6066.958547219898
 20
4348.908049522722
 30
0.0
 11
6059.115676561145
 21
4338.211022313623
 31
0.0
 12
6581.15075459261
 22
4201.564656530567
 32
0.0
 13
6581.15075459261
 23
4201.564656530567
 33
0.0
210
0.0
220
0.0
230
1.0
  0
SOLID
  5
73F
330
723
100
AcDbEntity
  8
HATCH
  6
CONTINUOUS
 62
     2
100
AcDbTrace
 10
6074.574030280866
 20
4360.243239983594
 30
0.0
 11
6066.958547219898
 21
4348.908049522722
 31
0.0
 12
6581.15075459261
 22
4201.564656530567
 32
0.0
 13
6581.15075459261
 23
4201.564656530567
 33
0.0
210
0.0
220
0.0
230
1.0
  0
SOLID
  5
740
330
723
100
AcDbEntity
  8
HATCH
  6
CONTINUOUS
 62
     2
100
AcDbTrace
 10
6081.949152470955
 20
4372.197283756181
 30
0.0
 11
6074.574030280866
 21
4360.243239983594
 31
0.0
 12
6581.15075459261
 22
4201.564656530567
 32
0.0
 13
6581.15075459261
 23
4201.564656530567
 33
0.0
210
0.0
220
0.0
230
1.0
  0
SOLID
  5
741
330
723
100
AcDbEntity
  8
HATCH
  6
CONTINUOUS
 62
     2
100
AcDbTrace
 10
6089.071349981208
 20
4384.74981665961
 30
0.0
 11
6081.949152470955
 21
4372.197283756181
 31
0.0
 12
6581.15075459261
 22
4201.564656530567
 32
0.0
 13
6581.15075459261
 23
4201.564656530567
 33
0.0
210
0.0
220
0.0
230
1.0
  0
SOLID
  5
742
330
723
100
AcDbEntity
  8
HATCH
  6
CONTINUOUS
 62
     2
100
AcDbTrace
 10
6095.928489869747
 20
4397.879454963383
 30
0.0
 11
6089.071349981208
 21
4384.74981665961
 31
0.0
 12
6581.15075459261
 22
4201.564656530567
 32
0.0
 13
6581.15075459261
 23
4201.564656530567
 33
0.0
210
0.0
220
0.0
230
1.0
  0
SOLID
  5
743
330
723
100
AcDbEntity
  8
HATCH
  6
CONTINUOUS
 62
     2
100
AcDbTrace
 10
6102.508890730716
 20
4411.56383181539
 30
0.0
 11
6095.928489869747
 21
4397.879454963383
 31
0.0
 12
6581.15075459261
 22
4201.564656530567
 32
0.0
 13
6581.15075459261
 23
4201.564656530567
 33
0.0
210
0.0
220
0.0
230
1.0
  0
SOLID
  5
744
330
723
100
AcDbEntity
  8
HATCH
  6
CONTINUOUS
 62
     2
100
AcDbTrace
 10
6108.801342594008
 20
4425.779635344716
 30
0.0
 11
6102.508890730716
 21
4411.56383181539
 31
0.0
 12
6581.15075459261
 22
4201.564656530567
 32
0.0
 13
6581.15075459261
 23
4201.564656530567
 33
0.0
210
0.0
220
0.0
230
1.0
  0
SOLID
  5
745
330
723
100
AcDbEntity
  8
HATCH
  6
CONTINUOUS
 62
     2
100
AcDbTrace
 10
6114.795126021893
 20
4440.502648374334
 30
0.0
 11
6108.801342594008
 21
4425.779635344716
 31
0.0
 12
6581.15075459261
 22
4201.564656530567
 32
0.0
 13
6581.15075459261
 23
4201.564656530567
 33
0.0
  0
SOLID
  5
746
330
723
100
AcDbEntity
  8
HATCH
  6
CONTINUOUS
 62
     2
100
AcDbTrace
 10
6120.480030369996
 20
4455.707789675999
 30
0.0
 11
6114.795126021893
 21
4440.502648374334
 31
0.0
 12
6581.15075459261
 22
4201.564656530567
 32
0.0
 13
6581.15075459261
 23
4201.564656530567
 33
0.0
210
0.0
220
0.0
230
1.0
  0
SOLID
  5
747
330
723
100
AcDbEntity
  8
HATCH
  6
CONTINUOUS
 62
     2
100
AcDbTrace
 10
6125.846371181524
 20
4471.369156697109
 30
0.0
 11
6120.480030369996
 21
4455.707789675999
 31
0.0
 12
6581.15075459261
 22
4201.564656530567
 32
0.0
 13
6581.15075459261
 23
4201.564656530567
 33
0.0
210
0.0
220
0.0
230
1.0
  0
SOLID
  5
748
330
723
100
AcDbEntity
  8
HATCH
  6
CONTINUOUS
 62
     2
100
AcDbTrace
 10
6130.885006685129
 20
4487.460069686718
 30
0.0
 11
6125.846371181524
 21
4471.369156697109
 31
0.0
 12
6581.15075459261
 22
4201.564656530567
 32
0.0
 13
6581.15075459261
 23
4201.564656530567
 33
0.0
210
0.0
220
0.0
230
1.0
  0
SOLID
  5
749
330
723
100
AcDbEntity
  8
HATCH
  6
CONTINUOUS
 62
     2
100
AcDbTrace
 10
6135.587353368261
 20
4503.953117145523
 30
0.0
 11
6130.885006685129
 21
4487.460069686718
 31
0.0
 12
6581.15075459261
 22
4201.564656530567
 32
0.0
 13
6581.15075459261
 23
4201.564656530567
 33
0.0
210
0.0
220
0.0
230
1.0
  0
SOLID
  5
74A
330
723
100
AcDbEntity
  8
HATCH
  6
CONTINUOUS
 62
     2
100
AcDbTrace
 10
6139.945400599523
 20
4520.820202522441
 30
0.0
 11
6135.587353368261
 21
4503.953117145523
 31
0.0
 12
6581.15075459261
 22
4201.564656530567
 32
0.0
 13
6581.15075459261
 23
4201.564656530567
 33
0.0
  0
SOLID
  5
74B
330
723
100
AcDbEntity
  8
HATCH
  6
CONTINUOUS
 62
     2
100
AcDbTrace
 10
6143.951724275091
 20
4538.03259207817
 30
0.0
 11
6139.945400599523
 21
4520.820202522441
 31
0.0
 12
6581.15075459261
 22
4201.564656530567
 32
0.0
 13
6581.15075459261
 23
4201.564656530567
 33
0.0
210
0.0
220
0.0
230
1.0
  0
SOLID
  5
74C
330
723
100
AcDbEntity
  8
HATCH
  6
CONTINUOUS
 62
     2
100
AcDbTrace
 10
6147.599499465974
 20
4555.560963834242
 30
0.0
 11
6143.951724275091
 21
4538.03259207817
 31
0.0
 12
6581.15075459261
 22
4201.564656530567
 32
0.0
 13
6581.15075459261
 23
4201.564656530567
 33
0.0
210
0.0
220
0.0
230
1.0
  0
SOLID
  5
74D
330
723
100
AcDbEntity
  8
HATCH
  6
CONTINUOUS
 62
     2
100
AcDbTrace
 10
6150.882512044534
 20
4573.375457524155
 30
0.0
 11
6147.599499465974
 21
4555.560963834242
 31
0.0
 12
6581.15075459261
 22
4201.564656530567
 32
0.0
 13
6581.15075459261
 23
4201.564656530567
 33
0.0
210
0.0
220
0.0
230
1.0
  0
SOLID
  5
74E
330
723
100
AcDbEntity
  8
HATCH
  6
CONTINUOUS
 62
     2
100
AcDbTrace
 10
6153.795169270505
 20
4591.445725461514
 30
0.0
 11
6150.882512044534
 21
4573.375457524155
 31
0.0
 12
6581.15075459261
 22
4201.564656530567
 32
0.0
 13
6581.15075459261
 23
4201.564656530567
 33
0.0
210
0.0
220
0.0
230
1.0
  0
SOLID
  5
74F
330
723
100
AcDbEntity
  8
HATCH
  6
CONTINUOUS
 62
     2
100
AcDbTrace
 10
6156.332509318442
 20
4609.740984238487
 30
0.0
 11
6153.795169270505
 21
4591.445725461514
 31
0.0
 12
6581.15075459261
 22
4201.564656530567
 32
0.0
 13
6581.15075459261
 23
4201.564656530567
 33
0.0
210
0.0
220
0.0
230
1.0
  0
SOLID
  5
750
330
723
100
AcDbEntity
  8
HATCH
  6
CONTINUOUS
 62
     2
100
AcDbTrace
 10
6158.490209730387
 20
4628.230067166557
 30
0.0
 11
6156.332509318442
 21
4609.740984238487
 31
0.0
 12
6581.15075459261
 22
4201.564656530567
 32
0.0
 13
6581.15075459261
 23
4201.564656530567
 33
0.0
210
0.0
220
0.0
230
1.0
  0
SOLID
  5
751
330
723
100
AcDbEntity
  8
HATCH
  6
CONTINUOUS
 62
     2
100
AcDbTrace
 10
6160.264594779337
 20
4646.88147737019
 30
0.0
 11
6158.490209730387
 21
4628.230067166557
 31
0.0
 12
6581.15075459261
 22
4201.564656530567
 32
0.0
 13
6581.15075459261
 23
4201.564656530567
 33
0.0
210
0.0
220
0.0
230
1.0
  0
SOLID
  5
752
330
723
100
AcDbEntity
  8
HATCH
  6
CONTINUOUS
 62
     2
100
AcDbTrace
 10
6161.652641731
 20
4665.663441442988
 30
0.0
 11
6160.264594779337
 21
4646.88147737019
 31
0.0
 12
6581.15075459261
 22
4201.564656530567
 32
0.0
 13
6581.15075459261
 23
4201.564656530567
 33
0.0
  0
SOLID
  5
753
330
723
100
AcDbEntity
  8
HATCH
  6
CONTINUOUS
 62
     2
100
AcDbTrace
 10
6162.651985993131
 20
4684.543963574935
 30
0.0
 11
6161.652641731
 21
4665.663441442988
 31
0.0
 12
6581.15075459261
 22
4201.564656530567
 32
0.0
 13
6581.15075459261
 23
4201.564656530567
 33
0.0
210
0.0
220
0.0
230
1.0
  0
SOLID
  5
754
330
723
100
AcDbEntity
  8
HATCH
  6
CONTINUOUS
 62
     2
100
AcDbTrace
 10
6163.260925143713
 20
4703.490880058509
 30
0.0
 11
6162.651985993131
 21
4684.543963574935
 31
0.0
 12
6581.15075459261
 22
4201.564656530567
 32
0.0
 13
6581.15075459261
 23
4201.564656530567
 33
0.0
  0
SOLID
  5
755
330
723
100
AcDbEntity
  8
HATCH
  6
CONTINUOUS
 62
     2
100
AcDbTrace
 10
6162.651985993045
 20
4722.437796541975
 30
0.0
 11
6163.260925143713
 21
4703.490880058509
 31
0.0
 12
6581.15075459261
 22
4201.564656530567
 32
0.0
 13
6581.15075459261
 23
4201.564656530567
 33
0.0
  0
SOLID
  5
756
330
723
100
AcDbEntity
  8
HATCH
  6
CONTINUOUS
 62
     2
100
AcDbTrace
 10
6161.652641730835
 20
4741.318318673799
 30
0.0
 11
6162.651985993045
 21
4722.437796541975
 31
0.0
 12
6581.15075459261
 22
4201.564656530567
 32
0.0
 13
6581.15075459261
 23
4201.564656530567
 33
0.0
  0
SOLID
  5
757
330
723
100
AcDbEntity
  8
HATCH
  6
CONTINUOUS
 62
     2
100
AcDbTrace
 10
6160.264594779098
 20
4760.10028274647
 30
0.0
 11
6161.652641730835
 21
4741.318318673799
 31
0.0
 12
6581.15075459261
 22
4201.564656530567
 32
0.0
 13
6581.15075459261
 23
4201.564656530567
 33
0.0
210
0.0
220
0.0
230
1.0
  0
SOLID
  5
758
330
723
100
AcDbEntity
  8
HATCH
  6
CONTINUOUS
 62
     2
100
AcDbTrace
 10
6158.490209730079
 20
4778.75169294997
 30
0.0
 11
6160.264594779098
 21
4760.10028274647
 31
0.0
 12
6581.15075459261
 22
4201.564656530567
 32
0.0
 13
6581.15075459261
 23
4201.564656530567
 33
0.0
210
0.0
220
0.0
230
1.0
  0
SOLID
  5
759
330
723
100
AcDbEntity
  8
HATCH
  6
CONTINUOUS
 62
     2
100
AcDbTrace
 10
6156.332509318069
 20
4797.240775877905
 30
0.0
 11
6158.490209730079
 21
4778.75169294997
 31
0.0
 12
6581.15075459261
 22
4201.564656530567
 32
0.0
 13
6581.15075459261
 23
4201.564656530567
 33
0.0
210
0.0
220
0.0
230
1.0
  0
SOLID
  5
75A
330
723
100
AcDbEntity
  8
HATCH
  6
CONTINUOUS
 62
     2
100
AcDbTrace
 10
6153.795169270072
 20
4815.53603465474
 30
0.0
 11
6156.332509318069
 21
4797.240775877905
 31
0.0
 12
6581.15075459261
 22
4201.564656530567
 32
0.0
 13
6581.15075459261
 23
4201.564656530567
 33
0.0
210
0.0
220
0.0
230
1.0
  0
SOLID
  5
75B
330
723
100
AcDbEntity
  8
HATCH
  6
CONTINUOUS
 62
     2
100
AcDbTrace
 10
6150.882512044046
 20
4833.606302591955
 30
0.0
 11
6153.795169270072
 21
4815.53603465474
 31
0.0
 12
6581.15075459261
 22
4201.564656530567
 32
0.0
 13
6581.15075459261
 23
4201.564656530567
 33
0.0
210
0.0
220
0.0
230
1.0
  0
SOLID
  5
75C
330
723
100
AcDbEntity
  8
HATCH
  6
CONTINUOUS
 62
     2
100
AcDbTrace
 10
6147.599499465436
 20
4851.420796281724
 30
0.0
 11
6150.882512044046
 21
4833.606302591955
 31
0.0
 12
6581.15075459261
 22
4201.564656530567
 32
0.0
 13
6581.15075459261
 23
4201.564656530567
 33
0.0
  0
SOLID
  5
75D
330
723
100
AcDbEntity
  8
HATCH
  6
CONTINUOUS
 62
     2
100
AcDbTrace
 10
6143.95172427451
 20
4868.949168037648
 30
0.0
 11
6147.599499465436
 21
4851.420796281724
 31
0.0
 12
6581.15075459261
 22
4201.564656530567
 32
0.0
 13
6581.15075459261
 23
4201.564656530567
 33
0.0
210
0.0
220
0.0
230
1.0
  0
SOLID
  5
75E
330
723
100
AcDbEntity
  8
HATCH
  6
CONTINUOUS
 62
     2
100
AcDbTrace
 10
6139.945400598902
 20
4886.161557593229
 30
0.0
 11
6143.95172427451
 21
4868.949168037648
 31
0.0
 12
6581.15075459261
 22
4201.564656530567
 32
0.0
 13
6581.15075459261
 23
4201.564656530567
 33
0.0
210
0.0
220
0.0
230
1.0
  0
SOLID
  5
75F
330
723
100
AcDbEntity
  8
HATCH
  6
CONTINUOUS
 62
     2
100
AcDbTrace
 10
6135.587353367607
 20
4903.028642969999
 30
0.0
 11
6139.945400598902
 21
4886.161557593229
 31
0.0
 12
6581.15075459261
 22
4201.564656530567
 32
0.0
 13
6581.15075459261
 23
4201.564656530567
 33
0.0
210
0.0
220
0.0
230
1.0
  0
SOLID
  5
760
330
723
100
AcDbEntity
  8
HATCH
  6
CONTINUOUS
 62
     2
100
AcDbTrace
 10
6130.885006684446
 20
4919.521690428657
 30
0.0
 11
6135.587353367607
 21
4903.028642969999
 31
0.0
 12
6581.15075459261
 22
4201.564656530567
 32
0.0
 13
6581.15075459261
 23
4201.564656530567
 33
0.0
  0
SOLID
  5
761
330
723
100
AcDbEntity
  8
HATCH
  6
CONTINUOUS
 62
     2
100
AcDbTrace
 10
6125.846371180818
 20
4935.612603418118
 30
0.0
 11
6130.885006684446
 21
4919.521690428657
 31
0.0
 12
6581.15075459261
 22
4201.564656530567
 32
0.0
 13
6581.15075459261
 23
4201.564656530567
 33
0.0
210
0.0
220
0.0
230
1.0
  0
SOLID
  5
762
330
723
100
AcDbEntity
  8
HATCH
  6
CONTINUOUS
 62
     2
100
AcDbTrace
 10
6120.48003036927
 20
4951.273970439082
 30
0.0
 11
6125.846371180818
 21
4935.612603418118
 31
0.0
 12
6581.15075459261
 22
4201.564656530567
 32
0.0
 13
6581.15075459261
 23
4201.564656530567
 33
0.0
210
0.0
220
0.0
230
1.0
  0
SOLID
  5
763
330
723
100
AcDbEntity
  8
HATCH
  6
CONTINUOUS
 62
     2
100
AcDbTrace
 10
6114.795126021154
 20
4966.479111740601
 30
0.0
 11
6120.48003036927
 21
4951.273970439082
 31
0.0
 12
6581.15075459261
 22
4201.564656530567
 32
0.0
 13
6581.15075459261
 23
4201.564656530567
 33
0.0
210
0.0
220
0.0
230
1.0
  0
SOLID
  5
764
330
723
100
AcDbEntity
  8
HATCH
  6
CONTINUOUS
 62
     2
100
AcDbTrace
 10
6108.80134259326
 20
4981.202124770076
 30
0.0
 11
6114.795126021154
 21
4966.479111740601
 31
0.0
 12
6581.15075459261
 22
4201.564656530567
 32
0.0
 13
6581.15075459261
 23
4201.564656530567
 33
0.0
210
0.0
220
0.0
230
1.0
  0
SOLID
  5
765
330
723
100
AcDbEntity
  8
HATCH
  6
CONTINUOUS
 62
     2
100
AcDbTrace
 10
6102.508890729963
 20
4995.417928299264
 30
0.0
 11
6108.80134259326
 21
4981.202124770076
 31
0.0
 12
6581.15075459261
 22
4201.564656530567
 32
0.0
 13
6581.15075459261
 23
4201.564656530567
 33
0.0
210
0.0
220
0.0
230
1.0
  0
SOLID
  5
766
330
723
100
AcDbEntity
  8
HATCH
  6
CONTINUOUS
 62
     2
100
AcDbTrace
 10
6095.928489868995
 20
5009.102305151133
 30
0.0
 11
6102.508890729963
 21
4995.417928299264
 31
0.0
 12
6581.15075459261
 22
4201.564656530567
 32
0.0
 13
6581.15075459261
 23
4201.564656530567
 33
0.0
210
0.0
220
0.0
230
1.0
  0
SOLID
  5
767
330
723
100
AcDbEntity
  8
HATCH
  6
CONTINUOUS
 62
     2
100
AcDbTrace
 10
6089.071349980462
 20
5022.231943454773
 30
0.0
 11
6095.928489868995
 21
5009.102305151133
 31
0.0
 12
6581.15075459261
 22
4201.564656530567
 32
0.0
 13
6581.15075459261
 23
4201.564656530567
 33
0.0
210
0.0
220
0.0
230
1.0
  0
SOLID
  5
768
330
723
100
AcDbEntity
  8
HATCH
  6
CONTINUOUS
 62
     2
100
AcDbTrace
 10
6081.949152470218
 20
5034.784476358073
 30
0.0
 11
6089.071349980462
 21
5022.231943454773
 31
0.0
 12
6581.15075459261
 22
4201.564656530567
 32
0.0
 13
6581.15075459261
 23
4201.564656530567
 33
0.0
210
0.0
220
0.0
230
1.0
  0
SOLID
  5
769
330
723
100
AcDbEntity
  8
HATCH
  6
CONTINUOUS
 62
     2
100
AcDbTrace
 10
5631.150754592301
 20
5151.13570974297
 30
0.0
 11
5631.150754592311
 21
5143.463433136481
 31
0.0
 12
5933.479016929634
 22
5143.46343313648
 32
0.0
 13
5933.479016929634
 23
5143.46343313648
 33
0.0
210
0.0
220
0.0
230
1.0
  0
SOLID
  5
76A
330
723
100
AcDbEntity
  8
HATCH
  6
CONTINUOUS
 62
     2
100
AcDbTrace
 10
5631.150754592301
 20
5154.595066104462
 30
0.0
 11
5631.150754592301
 21
5151.13570974297
 31
0.0
 12
5933.479016929634
 22
5143.46343313648
 32
0.0
 13
5933.479016929634
 23
5143.46343313648
 33
0.0
210
0.0
220
0.0
230
1.0
  0
SOLID
  5
76B
330
723
100
AcDbEntity
  8
HATCH
  6
CONTINUOUS
 62
     2
100
AcDbTrace
 10
5631.1507545923
 20
5157.62673561304
 30
0.0
 11
5631.150754592301
 21
5154.595066104462
 31
0.0
 12
5933.479016929634
 22
5143.46343313648
 32
0.0
 13
5933.479016929634
 23
5143.46343313648
 33
0.0
210
0.0
220
0.0
230
1.0
  0
SOLID
  5
76C
330
723
100
AcDbEntity
  8
HATCH
  6
CONTINUOUS
 62
     2
100
AcDbTrace
 10
5631.1507545923
 20
5157.62673561304
 30
0.0
 11
5933.479016929634
 21
5143.46343313648
 31
0.0
 12
5942.97000414889
 22
5143.071619145407
 32
0.0
 13
5942.97000414889
 23
5143.071619145407
 33
0.0
  0
SOLID
  5
76D
330
723
100
AcDbEntity
  8
HATCH
  6
CONTINUOUS
 62
     2
100
AcDbTrace
 10
5631.150754592297
 20
5160.116329212869
 30
0.0
 11
5631.1507545923
 21
5157.62673561304
 31
0.0
 12
5942.97000414889
 22
5143.071619145407
 32
0.0
 13
5942.97000414889
 23
5143.071619145407
 33
0.0
210
0.0
220
0.0
230
1.0
  0
SOLID
  5
76E
330
723
100
AcDbEntity
  8
HATCH
  6
CONTINUOUS
 62
     2
100
AcDbTrace
 10
5631.150754592296
 20
5161.966333762674
 30
0.0
 11
5631.150754592297
 21
5160.116329212869
 31
0.0
 12
5942.97000414889
 22
5143.071619145407
 32
0.0
 13
5942.97000414889
 23
5143.071619145407
 33
0.0
210
0.0
220
0.0
230
1.0
  0
SOLID
  5
76F
330
723
100
AcDbEntity
  8
HATCH
  6
CONTINUOUS
 62
     2
100
AcDbTrace
 10
5631.150754592294
 20
5163.106032787745
 30
0.0
 11
5631.150754592296
 21
5161.966333762674
 31
0.0
 12
5942.97000414889
 22
5143.071619145407
 32
0.0
 13
5942.97000414889
 23
5143.071619145407
 33
0.0
210
0.0
220
0.0
230
1.0
  0
SOLID
  5
770
330
723
100
AcDbEntity
  8
HATCH
  6
CONTINUOUS
 62
     2
100
AcDbTrace
 10
5631.150754592294
 20
5163.490880056571
 30
0.0
 11
5631.150754592294
 21
5163.106032787745
 31
0.0
 12
5942.97000414889
 22
5143.071619145407
 32
0.0
 13
5942.97000414889
 23
5143.071619145407
 33
0.0
210
0.0
220
0.0
230
1.0
  0
SOLID
  5
771
330
723
100
AcDbEntity
  8
HATCH
  6
CONTINUOUS
 62
     2
100
AcDbTrace
 10
6431.150752684017
 20
5205.417103483364
 30
0.0
 11
5631.150754592294
 21
5163.490880056571
 31
0.0
 12
5942.97000414889
 22
5143.071619145407
 32
0.0
 13
5942.97000414889
 23
5143.071619145407
 33
0.0
210
0.0
220
0.0
230
1.0
  0
SOLID
  5
772
330
723
100
AcDbEntity
  8
HATCH
  6
CONTINUOUS
 62
     2
100
AcDbTrace
 10
6431.150752684017
 20
5205.417103483364
 30
0.0
 11
5942.97000414889
 21
5143.071619145407
 31
0.0
 12
5952.444823100401
 22
5141.896844642639
 32
0.0
 13
5952.444823100401
 23
5141.896844642639
 33
0.0
  0
SOLID
  5
773
330
723
100
AcDbEntity
  8
HATCH
  6
CONTINUOUS
 62
     2
100
AcDbTrace
 10
6431.150752684017
 20
5205.417103483364
 30
0.0
 11
5952.444823100401
 21
5141.896844642639
 31
0.0
 12
5961.887333059697
 22
5139.941110902461
 32
0.0
 13
5961.887333059697
 23
5139.941110902461
 33
0.0
210
0.0
220
0.0
230
1.0
  0
SOLID
  5
774
330
723
100
AcDbEntity
  8
HATCH
  6
CONTINUOUS
 62
     2
100
AcDbTrace
 10
6431.150752684017
 20
5205.417103483364
 30
0.0
 11
5961.887333059697
 21
5139.941110902461
 31
0.0
 12
5971.281448341937
 22
5137.207749593756
 32
0.0
 13
5971.281448341937
 23
5137.207749593756
 33
0.0
210
0.0
220
0.0
230
1.0
  0
SOLID
  5
775
330
723
100
AcDbEntity
  8
HATCH
  6
CONTINUOUS
 62
     2
100
AcDbTrace
 10
6431.150752684017
 20
5205.417103483364
 30
0.0
 11
5971.281448341937
 21
5137.207749593756
 31
0.0
 12
5980.611165704509
 22
5133.701417104362
 32
0.0
 13
5980.611165704509
 23
5133.701417104362
 33
0.0
  0
SOLID
  5
776
330
723
100
AcDbEntity
  8
HATCH
  6
CONTINUOUS
 62
     2
100
AcDbTrace
 10
6431.150752684017
 20
5205.417103483364
 30
0.0
 11
5980.611165704509
 21
5133.701417104362
 31
0.0
 12
5989.86059160917
 22
5129.428086608744
 32
0.0
 13
5989.86059160917
 23
5129.428086608744
 33
0.0
210
0.0
220
0.0
230
1.0
  0
SOLID
  5
777
330
723
100
AcDbEntity
  8
HATCH
  6
CONTINUOUS
 62
     2
100
AcDbTrace
 10
6431.150752684017
 20
5205.417103483364
 30
0.0
 11
5989.86059160917
 21
5129.428086608744
 31
0.0
 12
5999.013969297317
 22
5124.395037892455
 32
0.0
 13
5999.013969297317
 23
5124.395037892455
 33
0.0
210
0.0
220
0.0
230
1.0
  0
SOLID
  5
778
330
723
100
AcDbEntity
  8
HATCH
  6
CONTINUOUS
 62
     2
100
AcDbTrace
 10
6431.150752684017
 20
5205.417103483364
 30
0.0
 11
5999.013969297317
 21
5124.395037892455
 31
0.0
 12
6008.055705632239
 22
5118.61084495073
 32
0.0
 13
6008.055705632239
 23
5118.61084495073
 33
0.0
210
0.0
220
0.0
230
1.0
  0
SOLID
  5
779
330
723
100
AcDbEntity
  8
HATCH
  6
CONTINUOUS
 62
     2
100
AcDbTrace
 10
6431.150752684017
 20
5205.417103483364
 30
0.0
 11
6008.055705632239
 21
5118.61084495073
 31
0.0
 12
6016.970397662632
 22
5112.085361382359
 32
0.0
 13
6016.970397662632
 23
5112.085361382359
 33
0.0
  0
SOLID
  5
77A
330
723
100
AcDbEntity
  8
HATCH
  6
CONTINUOUS
 62
     2
100
AcDbTrace
 10
6431.150752684017
 20
5205.417103483364
 30
0.0
 11
6016.970397662632
 21
5112.085361382359
 31
0.0
 12
6025.742858862132
 22
5104.829703603693
 32
0.0
 13
6025.742858862132
 23
5104.829703603693
 33
0.0
  0
SOLID
  5
77B
330
723
100
AcDbEntity
  8
HATCH
  6
CONTINUOUS
 62
     2
100
AcDbTrace
 10
6431.150752684017
 20
5205.417103483364
 30
0.0
 11
6025.742858862132
 21
5104.829703603693
 31
0.0
 12
6034.358145000158
 22
5096.856231911394
 32
0.0
 13
6034.358145000158
 23
5096.856231911394
 33
0.0
210
0.0
220
0.0
230
1.0
  0
SOLID
  5
77C
330
723
100
AcDbEntity
  8
HATCH
  6
CONTINUOUS
 62
     2
100
AcDbTrace
 10
6431.150752684017
 20
5205.417103483364
 30
0.0
 11
6034.358145000158
 21
5096.856231911394
 31
0.0
 12
6042.801579599985
 22
5088.178529426185
 32
0.0
 13
6042.801579599985
 23
5088.178529426185
 33
0.0
210
0.0
220
0.0
230
1.0
  0
SOLID
  5
77D
330
723
100
AcDbEntity
  8
HATCH
  6
CONTINUOUS
 62
     2
100
AcDbTrace
 10
6431.150752684017
 20
5205.417103483364
 30
0.0
 11
6042.801579599985
 21
5088.178529426185
 31
0.0
 12
6051.058778940708
 22
5078.811378953478
 32
0.0
 13
6051.058778940708
 23
5078.811378953478
 33
0.0
210
0.0
220
0.0
230
1.0
  0
SOLID
  5
77E
330
723
100
AcDbEntity
  8
HATCH
  6
CONTINUOUS
 62
     2
100
AcDbTrace
 10
6431.150752684017
 20
5205.417103483364
 30
0.0
 11
6051.058778940708
 21
5078.811378953478
 31
0.0
 12
6059.115676560461
 22
5068.770737800275
 32
0.0
 13
6059.115676560461
 23
5068.770737800275
 33
0.0
210
0.0
220
0.0
230
1.0
  0
SOLID
  5
77F
330
723
100
AcDbEntity
  8
HATCH
  6
CONTINUOUS
 62
     2
100
AcDbTrace
 10
6431.150752684017
 20
5205.417103483364
 30
0.0
 11
6059.115676560461
 21
5068.770737800275
 31
0.0
 12
6066.958547219192
 22
5058.07371059129
 32
0.0
 13
6066.958547219192
 23
5058.07371059129
 33
0.0
210
0.0
220
0.0
230
1.0
  0
SOLID
  5
780
330
723
100
AcDbEntity
  8
HATCH
  6
CONTINUOUS
 62
     2
100
AcDbTrace
 10
6431.150752684017
 20
5205.417103483364
 30
0.0
 11
6066.958547219192
 21
5058.07371059129
 31
0.0
 12
6074.574030280143
 22
5046.738520130536
 32
0.0
 13
6074.574030280143
 23
5046.738520130536
 33
0.0
210
0.0
220
0.0
230
1.0
  0
SOLID
  5
781
330
723
100
AcDbEntity
  8
HATCH
  6
CONTINUOUS
 62
     2
100
AcDbTrace
 10
6431.150752684017
 20
5205.417103483364
 30
0.0
 11
6074.574030280143
 21
5046.738520130536
 31
0.0
 12
6081.949152470218
 22
5034.784476358073
 32
0.0
 13
6081.949152470218
 23
5034.784476358073
 33
0.0
210
0.0
220
0.0
230
1.0
  0
SOLID
  5
782
330
723
100
AcDbEntity
  8
HATCH
  6
CONTINUOUS
 62
     2
100
AcDbTrace
 10
6431.150752684017
 20
5205.417103483364
 30
0.0
 11
6081.949152470218
 21
5034.784476358073
 31
0.0
 12
6581.15075459261
 22
4201.564656530567
 32
0.0
 13
6581.15075459261
 23
4201.564656530567
 33
0.0
210
0.0
220
0.0
230
1.0
  0
SOLID
  5
783
330
723
100
AcDbEntity
  8
HATCH
  6
CONTINUOUS
 62
     2
100
AcDbTrace
 10
6431.150754592207
 20
5205.417103483367
 30
0.0
 11
6431.150752684017
 21
5205.417103483364
 31
0.0
 12
6581.15075459261
 22
4201.564656530567
 32
0.0
 13
6581.15075459261
 23
4201.564656530567
 33
0.0
210
0.0
220
0.0
230
1.0
  0
SOLID
  5
784
330
723
100
AcDbEntity
  8
HATCH
  6
CONTINUOUS
 62
     2
100
AcDbTrace
 10
6431.215119170357
 20
5205.417103583366
 30
0.0
 11
6431.150752684017
 21
5205.417103483364
 31
0.0
 12
6431.150754592207
 22
5205.417103483367
 32
0.0
 13
6431.150754592207
 23
5205.417103483367
 33
0.0
210
0.0
220
0.0
230
1.0
  0
SOLID
  5
785
330
723
100
AcDbEntity
  8
HATCH
  6
CONTINUOUS
 62
     2
100
AcDbTrace
 10
6531.150754592148
 20
5205.417103583411
 30
0.0
 11
6431.150754592207
 21
5205.417103483367
 31
0.0
 12
6581.15075459261
 22
4201.564656530567
 32
0.0
 13
6581.15075459261
 23
4201.564656530567
 33
0.0
  0
SOLID
  5
786
330
723
100
AcDbEntity
  8
HATCH
  6
CONTINUOUS
 62
     2
100
AcDbTrace
 10
6581.150754592147
 20
5205.417103583435
 30
0.0
 11
6531.150754592148
 21
5205.417103583411
 31
0.0
 12
6581.15075459261
 22
4201.564656530567
 32
0.0
 13
6581.15075459261
 23
4201.564656530567
 33
0.0
210
0.0
220
0.0
230
1.0
  0
ENDBLK
  5
788
330
723
100
AcDbEntity
  8
0
100
AcDbBlockEnd
  0
BLOCK
  5
7B6
330
789
100
AcDbEntity
  8
0
100
AcDbBlockBegin
  2
*U5
 70
     1
 10
0.0
 20
0.0
 30
0.0
  3
*U5
  1

  0
SOLID
  5
78A
330
789
100
AcDbEntity
  8
HATCH
  6
CONTINUOUS
 62
     3
100
AcDbTrace
 10
3651.394866266641
 20
5453.490880056601
 30
0.0
 11
1251.39486626664
 21
5453.490880056602
 31
0.0
 12
3051.394866266638
 22
4853.490880056599
 32
0.0
 13
3051.394866266638
 23
4853.490880056599
 33
0.0
210
0.0
220
0.0
230
1.0
  0
SOLID
  5
78B
330
789
100
AcDbEntity
  8
HATCH
  6
CONTINUOUS
 62
     3
100
AcDbTrace
 10
1851.394866266637
 20
4853.490880056603
 30
0.0
 11
3051.394866266638
 21
4853.490880056599
 31
0.0
 12
1251.39486626664
 22
5453.490880056602
 32
0.0
 13
1251.39486626664
 23
5453.490880056602
 33
0.0
210
0.0
220
0.0
230
1.0
  0
SOLID
  5
78C
330
789
100
AcDbEntity
  8
HATCH
  6
CONTINUOUS
 62
     3
100
AcDbTrace
 10
3051.394866266639
 20
4853.4908800566
 30
0.0
 11
3051.394866266639
 21
3653.4908800566
 31
0.0
 12
3651.39486626664
 22
5453.4908800566
 32
0.0
 13
3651.39486626664
 23
5453.4908800566
 33
0.0
210
0.0
220
0.0
230
1.0
  0
SOLID
  5
78D
330
789
100
AcDbEntity
  8
HATCH
  6
CONTINUOUS
 62
     3
100
AcDbTrace
 10
3651.394866266639
 20
3053.4908800566
 30
0.0
 11
3651.39486626664
 21
5453.4908800566
 31
0.0
 12
3051.394866266639
 22
3653.4908800566
 32
0.0
 13
3051.394866266639
 23
3653.4908800566
 33
0.0
210
0.0
220
0.0
230
1.0
  0
SOLID
  5
78E
330
789
100
AcDbEntity
  8
HATCH
  6
CONTINUOUS
 62
     3
100
AcDbTrace
 10
2468.894866266637
 20
4253.490880056601
 30
0.0
 11
2463.769234937402
 21
4241.116511385838
 31
0.0
 12
3051.394866266639
 22
3653.490880056601
 32
0.0
 13
3051.394866266639
 23
3653.490880056601
 33
0.0
  0
SOLID
  5
78F
330
789
100
AcDbEntity
  8
HATCH
  6
CONTINUOUS
 62
     3
100
AcDbTrace
 10
2463.769234937403
 20
4265.865248727364
 30
0.0
 11
2468.894866266637
 21
4253.490880056601
 31
0.0
 12
3051.394866266639
 22
3653.490880056601
 32
0.0
 13
3051.394866266639
 23
3653.490880056601
 33
0.0
  0
SOLID
  5
790
330
789
100
AcDbEntity
  8
HATCH
  6
CONTINUOUS
 62
     3
100
AcDbTrace
 10
3051.394866266639
 20
4853.490880056602
 30
0.0
 11
2463.769234937403
 21
4265.865248727364
 31
0.0
 12
3051.394866266639
 22
3653.490880056601
 32
0.0
 13
3051.394866266639
 23
3653.490880056601
 33
0.0
  0
SOLID
  5
791
330
789
100
AcDbEntity
  8
HATCH
  6
CONTINUOUS
 62
     3
100
AcDbTrace
 10
2441.894866266637
 20
4318.299902554758
 30
0.0
 11
2440.396203448423
 21
4267.102618234043
 31
0.0
 12
2441.894866266637
 22
4268.1878185133
 32
0.0
 13
2441.894866266637
 23
4268.1878185133
 33
0.0
210
0.0
220
0.0
230
1.0
  0
SOLID
  5
792
330
789
100
AcDbEntity
  8
HATCH
  6
CONTINUOUS
 62
     3
100
AcDbTrace
 10
2441.894866266637
 20
4318.299902554758
 30
0.0
 11
2439.020497595873
 21
4265.865248727367
 31
0.0
 12
2440.396203448423
 22
4267.102618234043
 32
0.0
 13
2440.396203448423
 23
4267.102618234043
 33
0.0
210
0.0
220
0.0
230
1.0
  0
SOLID
  5
793
330
789
100
AcDbEntity
  8
HATCH
  6
CONTINUOUS
 62
     3
100
AcDbTrace
 10
2460.894866266637
 20
4318.299902554758
 30
0.0
 11
2460.894866266637
 21
4268.1878185133
 31
0.0
 12
2462.393529084852
 22
4267.102618234043
 32
0.0
 13
2462.393529084852
 23
4267.102618234043
 33
0.0
210
0.0
220
0.0
230
1.0
  0
SOLID
  5
794
330
789
100
AcDbEntity
  8
HATCH
  6
CONTINUOUS
 62
     3
100
AcDbTrace
 10
2460.894866266637
 20
4318.299902554758
 30
0.0
 11
2462.393529084852
 21
4267.102618234043
 31
0.0
 12
2463.769234937403
 22
4265.865248727364
 32
0.0
 13
2463.769234937403
 23
4265.865248727364
 33
0.0
  0
SOLID
  5
795
330
789
100
AcDbEntity
  8
HATCH
  6
CONTINUOUS
 62
     3
100
AcDbTrace
 10
2441.894866266637
 20
4364.215177460504
 30
0.0
 11
2439.020497595873
 21
4265.865248727367
 31
0.0
 12
2441.894866266637
 22
4318.299902554758
 32
0.0
 13
2441.894866266637
 23
4318.299902554758
 33
0.0
210
0.0
220
0.0
230
1.0
  0
SOLID
  5
796
330
789
100
AcDbEntity
  8
HATCH
  6
CONTINUOUS
 62
     3
100
AcDbTrace
 10
2460.894866266637
 20
4364.215177460504
 30
0.0
 11
2460.894866266637
 21
4318.299902554758
 31
0.0
 12
2463.769234937403
 22
4265.865248727364
 32
0.0
 13
2463.769234937403
 23
4265.865248727364
 33
0.0
210
0.0
220
0.0
230
1.0
  0
SOLID
  5
797
330
789
100
AcDbEntity
  8
HATCH
  6
CONTINUOUS
 62
     3
100
AcDbTrace
 10
2441.894866266636
 20
4619.6845574648
 30
0.0
 11
2439.020497595873
 21
4265.865248727367
 31
0.0
 12
2441.894866266637
 22
4364.215177460504
 32
0.0
 13
2441.894866266637
 23
4364.215177460504
 33
0.0
210
0.0
220
0.0
230
1.0
  0
SOLID
  5
798
330
789
100
AcDbEntity
  8
HATCH
  6
CONTINUOUS
 62
     3
100
AcDbTrace
 10
2460.894866266637
 20
4619.6845574648
 30
0.0
 11
2460.894866266637
 21
4364.215177460504
 31
0.0
 12
2463.769234937403
 22
4265.865248727364
 32
0.0
 13
2463.769234937403
 23
4265.865248727364
 33
0.0
210
0.0
220
0.0
230
1.0
  0
SOLID
  5
799
330
789
100
AcDbEntity
  8
HATCH
  6
CONTINUOUS
 62
     3
100
AcDbTrace
 10
3051.394866266636
 20
4853.490880056599
 30
0.0
 11
2441.894866266636
 21
4619.6845574648
 31
0.0
 12
2460.894866266637
 22
4619.6845574648
 32
0.0
 13
2460.894866266637
 23
4619.6845574648
 33
0.0
210
0.0
220
0.0
230
1.0
  0
SOLID
  5
79A
330
789
100
AcDbEntity
  8
HATCH
  6
CONTINUOUS
 62
     3
100
AcDbTrace
 10
3051.394866266636
 20
4853.490880056599
 30
0.0
 11
2460.894866266637
 21
4619.6845574648
 31
0.0
 12
2463.769234937403
 22
4265.865248727364
 32
0.0
 13
2463.769234937403
 23
4265.865248727364
 33
0.0
210
0.0
220
0.0
230
1.0
  0
SOLID
  5
79B
330
789
100
AcDbEntity
  8
HATCH
  6
CONTINUOUS
 62
     3
100
AcDbTrace
 10
1851.39486626664
 20
4853.490880056602
 30
0.0
 11
2441.894866266636
 21
4619.6845574648
 31
0.0
 12
3051.394866266636
 22
4853.490880056599
 32
0.0
 13
3051.394866266636
 23
4853.490880056599
 33
0.0
210
0.0
220
0.0
230
1.0
  0
SOLID
  5
79C
330
789
100
AcDbEntity
  8
HATCH
  6
CONTINUOUS
 62
     3
100
AcDbTrace
 10
1851.39486626664
 20
4853.490880056602
 30
0.0
 11
2439.020497595873
 21
4265.865248727367
 31
0.0
 12
2441.894866266636
 22
4619.6845574648
 32
0.0
 13
2441.894866266636
 23
4619.6845574648
 33
0.0
210
0.0
220
0.0
230
1.0
  0
SOLID
  5
79D
330
789
100
AcDbEntity
  8
HATCH
  6
CONTINUOUS
 62
     3
100
AcDbTrace
 10
2433.894866266637
 20
4253.490880056601
 30
0.0
 11
1851.394866266638
 21
3653.490880056602
 31
0.0
 12
2439.020497595874
 22
4241.116511385835
 32
0.0
 13
2439.020497595874
 23
4241.116511385835
 33
0.0
210
0.0
220
0.0
230
1.0
  0
SOLID
  5
79E
330
789
100
AcDbEntity
  8
HATCH
  6
CONTINUOUS
 62
     3
100
AcDbTrace
 10
2439.020497595873
 20
4265.865248727367
 30
0.0
 11
1851.394866266638
 21
3653.490880056602
 31
0.0
 12
2433.894866266637
 22
4253.490880056601
 32
0.0
 13
2433.894866266637
 23
4253.490880056601
 33
0.0
210
0.0
220
0.0
230
1.0
  0
SOLID
  5
79F
330
789
100
AcDbEntity
  8
HATCH
  6
CONTINUOUS
 62
     3
100
AcDbTrace
 10
1851.394866266639
 20
4853.490880056603
 30
0.0
 11
1851.394866266638
 21
3653.490880056602
 31
0.0
 12
2439.020497595873
 22
4265.865248727367
 32
0.0
 13
2439.020497595873
 23
4265.865248727367
 33
0.0
210
0.0
220
0.0
230
1.0
  0
SOLID
  5
7A0
330
789
100
AcDbEntity
  8
HATCH
  6
CONTINUOUS
 62
     3
100
AcDbTrace
 10
2441.894866266637
 20
3998.819582225944
 30
0.0
 11
1851.394866266639
 21
3653.490880056603
 31
0.0
 12
3051.394866266638
 22
3653.490880056601
 32
0.0
 13
3051.394866266638
 23
3653.490880056601
 33
0.0
210
0.0
220
0.0
230
1.0
  0
SOLID
  5
7A1
330
789
100
AcDbEntity
  8
HATCH
  6
CONTINUOUS
 62
     3
100
AcDbTrace
 10
3051.394866266638
 20
3653.490880056601
 30
0.0
 11
2460.894866266637
 21
3998.819582225944
 31
0.0
 12
2441.894866266637
 22
3998.819582225944
 32
0.0
 13
2441.894866266637
 23
3998.819582225944
 33
0.0
210
0.0
220
0.0
230
1.0
  0
SOLID
  5
7A2
330
789
100
AcDbEntity
  8
HATCH
  6
CONTINUOUS
 62
     3
100
AcDbTrace
 10
2441.894866266637
 20
3998.823322694203
 30
0.0
 11
1851.394866266639
 21
3653.490880056603
 31
0.0
 12
2441.894866266637
 22
3998.819582225944
 32
0.0
 13
2441.894866266637
 23
3998.819582225944
 33
0.0
210
0.0
220
0.0
230
1.0
  0
SOLID
  5
7A3
330
789
100
AcDbEntity
  8
HATCH
  6
CONTINUOUS
 62
     3
100
AcDbTrace
 10
2460.894866266637
 20
3998.823322694203
 30
0.0
 11
2460.894866266637
 21
3998.819582225944
 31
0.0
 12
3051.394866266638
 22
3653.490880056601
 32
0.0
 13
3051.394866266638
 23
3653.490880056601
 33
0.0
210
0.0
220
0.0
230
1.0
  0
SOLID
  5
7A4
330
789
100
AcDbEntity
  8
HATCH
  6
CONTINUOUS
 62
     3
100
AcDbTrace
 10
2441.894866266637
 20
4053.019876041545
 30
0.0
 11
1851.394866266639
 21
3653.490880056603
 31
0.0
 12
2441.894866266637
 22
3998.823322694203
 32
0.0
 13
2441.894866266637
 23
3998.823322694203
 33
0.0
210
0.0
220
0.0
230
1.0
  0
SOLID
  5
7A5
330
789
100
AcDbEntity
  8
HATCH
  6
CONTINUOUS
 62
     3
100
AcDbTrace
 10
2460.894866266637
 20
4053.019876041545
 30
0.0
 11
2460.894866266637
 21
3998.823322694203
 31
0.0
 12
3051.394866266638
 22
3653.490880056601
 32
0.0
 13
3051.394866266638
 23
3653.490880056601
 33
0.0
210
0.0
220
0.0
230
1.0
  0
SOLID
  5
7A6
330
789
100
AcDbEntity
  8
HATCH
  6
CONTINUOUS
 62
     3
100
AcDbTrace
 10
2441.894866266637
 20
4105.468403405057
 30
0.0
 11
1851.394866266639
 21
3653.490880056603
 31
0.0
 12
2441.894866266637
 22
4053.019876041545
 32
0.0
 13
2441.894866266637
 23
4053.019876041545
 33
0.0
210
0.0
220
0.0
230
1.0
  0
SOLID
  5
7A7
330
789
100
AcDbEntity
  8
HATCH
  6
CONTINUOUS
 62
     3
100
AcDbTrace
 10
2441.894866266637
 20
4105.964591774323
 30
0.0
 11
1851.394866266639
 21
3653.490880056603
 31
0.0
 12
2441.894866266637
 22
4105.468403405057
 32
0.0
 13
2441.894866266637
 23
4105.468403405057
 33
0.0
210
0.0
220
0.0
230
1.0
  0
SOLID
  5
7A8
330
789
100
AcDbEntity
  8
HATCH
  6
CONTINUOUS
 62
     3
100
AcDbTrace
 10
2460.894866266637
 20
4105.964591774323
 30
0.0
 11
2460.894866266637
 21
4053.019876041545
 31
0.0
 12
3051.394866266638
 22
3653.490880056601
 32
0.0
 13
3051.394866266638
 23
3653.490880056601
 33
0.0
210
0.0
220
0.0
230
1.0
  0
SOLID
  5
7A9
330
789
100
AcDbEntity
  8
HATCH
  6
CONTINUOUS
 62
     3
100
AcDbTrace
 10
2441.894866266637
 20
4165.319495613132
 30
0.0
 11
1851.394866266639
 21
3653.490880056603
 31
0.0
 12
2441.894866266637
 22
4105.964591774323
 32
0.0
 13
2441.894866266637
 23
4105.964591774323
 33
0.0
  0
SOLID
  5
7AA
330
789
100
AcDbEntity
  8
HATCH
  6
CONTINUOUS
 62
     3
100
AcDbTrace
 10
2460.894866266637
 20
4165.319495613132
 30
0.0
 11
2460.894866266637
 21
4105.964591774323
 31
0.0
 12
3051.394866266638
 22
3653.490880056601
 32
0.0
 13
3051.394866266638
 23
3653.490880056601
 33
0.0
210
0.0
220
0.0
230
1.0
  0
SOLID
  5
7AB
330
789
100
AcDbEntity
  8
HATCH
  6
CONTINUOUS
 62
     3
100
AcDbTrace
 10
2460.894866266637
 20
4167.272318582532
 30
0.0
 11
2460.894866266637
 21
4165.319495613132
 31
0.0
 12
3051.394866266638
 22
3653.490880056601
 32
0.0
 13
3051.394866266638
 23
3653.490880056601
 33
0.0
210
0.0
220
0.0
230
1.0
  0
SOLID
  5
7AC
330
789
100
AcDbEntity
  8
HATCH
  6
CONTINUOUS
 62
     3
100
AcDbTrace
 10
2441.894866266637
 20
4238.793941599903
 30
0.0
 11
1851.394866266639
 21
3653.490880056603
 31
0.0
 12
2441.894866266637
 22
4165.319495613132
 32
0.0
 13
2441.894866266637
 23
4165.319495613132
 33
0.0
210
0.0
220
0.0
230
1.0
  0
SOLID
  5
7AD
330
789
100
AcDbEntity
  8
HATCH
  6
CONTINUOUS
 62
     3
100
AcDbTrace
 10
2460.894866266637
 20
4238.793941599903
 30
0.0
 11
2460.894866266637
 21
4167.272318582532
 31
0.0
 12
3051.394866266638
 22
3653.490880056601
 32
0.0
 13
3051.394866266638
 23
3653.490880056601
 33
0.0
  0
SOLID
  5
7AE
330
789
100
AcDbEntity
  8
HATCH
  6
CONTINUOUS
 62
     3
100
AcDbTrace
 10
2440.396203448424
 20
4239.879141879159
 30
0.0
 11
1851.394866266639
 21
3653.490880056603
 31
0.0
 12
2441.894866266637
 22
4238.793941599903
 32
0.0
 13
2441.894866266637
 23
4238.793941599903
 33
0.0
210
0.0
220
0.0
230
1.0
  0
SOLID
  5
7AF
330
789
100
AcDbEntity
  8
HATCH
  6
CONTINUOUS
 62
     3
100
AcDbTrace
 10
2462.393529084851
 20
4239.87914187916
 30
0.0
 11
2460.894866266637
 21
4238.793941599903
 31
0.0
 12
3051.394866266638
 22
3653.490880056601
 32
0.0
 13
3051.394866266638
 23
3653.490880056601
 33
0.0
  0
SOLID
  5
7B0
330
789
100
AcDbEntity
  8
HATCH
  6
CONTINUOUS
 62
     3
100
AcDbTrace
 10
2439.020497595874
 20
4241.116511385835
 30
0.0
 11
1851.394866266639
 21
3653.490880056603
 31
0.0
 12
2440.396203448424
 22
4239.879141879159
 32
0.0
 13
2440.396203448424
 23
4239.879141879159
 33
0.0
210
0.0
220
0.0
230
1.0
  0
SOLID
  5
7B1
330
789
100
AcDbEntity
  8
HATCH
  6
CONTINUOUS
 62
     3
100
AcDbTrace
 10
2463.769234937402
 20
4241.116511385838
 30
0.0
 11
2462.393529084851
 21
4239.87914187916
 31
0.0
 12
3051.394866266638
 22
3653.490880056601
 32
0.0
 13
3051.394866266638
 23
3653.490880056601
 33
0.0
210
0.0
220
0.0
230
1.0
  0
SOLID
  5
7B2
330
789
100
AcDbEntity
  8
HATCH
  6
CONTINUOUS
 62
     3
100
AcDbTrace
 10
1851.39486626664
 20
3653.490880056603
 30
0.0
 11
1251.39486626664
 21
3053.4908800566
 31
0.0
 12
3051.394866266638
 22
3653.490880056601
 32
0.0
 13
3051.394866266638
 23
3653.490880056601
 33
0.0
210
0.0
220
0.0
230
1.0
  0
SOLID
  5
7B3
330
789
100
AcDbEntity
  8
HATCH
  6
CONTINUOUS
 62
     3
100
AcDbTrace
 10
3651.394866266638
 20
3053.4908800566
 30
0.0
 11
3051.394866266638
 21
3653.490880056601
 31
0.0
 12
1251.39486626664
 22
3053.4908800566
 32
0.0
 13
1251.39486626664
 23
3053.4908800566
 33
0.0
210
0.0
220
0.0
230
1.0
  0
SOLID
  5
7B4
330
789
100
AcDbEntity
  8
HATCH
  6
CONTINUOUS
 62
     3
100
AcDbTrace
 10
1851.394866266639
 20
3653.490880056603
 30
0.0
 11
1851.394866266639
 21
4853.490880056602
 31
0.0
 12
1251.39486626664
 22
3053.490880056599
 32
0.0
 13
1251.39486626664
 23
3053.490880056599
 33
0.0
210
0.0
220
0.0
230
1.0
  0
SOLID
  5
7B5
330
789
100
AcDbEntity
  8
HATCH
  6
CONTINUOUS
 62
     3
100
AcDbTrace
 10
1251.39486626664
 20
5453.490880056602
 30
0.0
 11
1251.39486626664
 21
3053.490880056599
 31
0.0
 12
1851.394866266639
 22
4853.490880056602
 32
0.0
 13
1851.394866266639
 23
4853.490880056602
 33
0.0
210
0.0
220
0.0
230
1.0
  0
ENDBLK
  5
7B7
330
789
100
AcDbEntity
  8
0
100
AcDbBlockEnd
  0
ENDSEC
  0
SECTION
  2
ENTITIES
  0
INSERT
  5
44E
330
1F
100
AcDbEntity
  8
HATCH
100
AcDbBlockReference
  2
ADKK
 10
0.0
 20
0.0
 30
0.0
  0
ENDSEC
  0
SECTION
  2
OBJECTS
  0
DICTIONARY
  5
C
330
0
100
AcDbDictionary
  3
ACAD_GROUP
350
D
  3
ACAD_LAYOUT
350
1A
  3
ACAD_MLINESTYLE
350
17
  3
ACAD_PLOTSETTINGS
350
19
1001
ACAD
1000
TREAT_AS_HARD
1070
     0
1000
TREAT_AS_HARD
1070
     0
1000
TREAT_AS_HARD
1070
     0
  0
DICTIONARY
  5
154
330
1F
100
AcDbDictionary
  3
ACAD_LAYOUTSELFREF
350
450
  3
ACAD_SORTENTS
350
307
1001
ACAD
1000
TREAT_AS_HARD
1070
     1
1000
TREAT_AS_HARD
1070
     0
1000
TREAT_AS_HARD
1070
     0
  0
DICTIONARY
  5
156
330
50
100
AcDbDictionary
  3
ACAD_LAYOUTSELFREF
350
451
1001
ACAD
1000
TREAT_AS_HARD
1070
     1
1000
TREAT_AS_HARD
1070
     0
1000
TREAT_AS_HARD
1070
     0
  0
DICTIONARY
  5
D
102
{ACAD_REACTORS
330
C
102
}
330
C
100
AcDbDictionary
1001
ACAD
1000
TREAT_AS_HARD
1070
     0
1000
TREAT_AS_HARD
1070
     0
1000
TREAT_AS_HARD
1070
     0
  0
DICTIONARY
  5
1A
102
{ACAD_REACTORS
330
C
102
}
330
C
100
AcDbDictionary
1001
ACAD
1000
TREAT_AS_HARD
1070
     0
1000
TREAT_AS_HARD
1070
     0
1000
TREAT_AS_HARD
1070
     0
  0
DICTIONARY
  5
17
102
{ACAD_REACTORS
330
C
102
}
330
C
100
AcDbDictionary
  3
STANDARD
350
18
1001
ACAD
1000
TREAT_AS_HARD
1070
     0
1000
TREAT_AS_HARD
1070
     0
1000
TREAT_AS_HARD
1070
     0
  0
DICTIONARY
  5
19
102
{ACAD_REACTORS
330
C
102
}
330
C
100
AcDbDictionary
1001
ACAD
1000
TREAT_AS_HARD
1070
     0
1000
TREAT_AS_HARD
1070
     0
1000
TREAT_AS_HARD
1070
     0
  0
XRECORD
  5
450
102
{ACAD_REACTORS
330
154
102
}
330
154
100
AcDbXrecord
340
1F
  0
SORTENTSTABLE
  5
307
102
{ACAD_REACTORS
330
154
102
}
330
154
100
AcDbSortentsTable
330
1F
331
246
  5
24B
331
224
  5
230
331
21B
  5
225
331
257
  5
25D
331
235
  5
220
331
266
  5
26D
331
244
  5
249
331
222
  5
22E
331
277
  5
27F
331
255
  5
25B
331
233
  5
23A
331
219
  5
224
331
264
  5
26C
331
242
  5
247
331
220
  5
22C
331
275
  5
27E
331
253
  5
258
331
231
  5
238
331
36A
  5
21C
331
262
  5
26B
331
240
  5
245
331
273
  5
27A
331
251
  5
256
331
22F
  5
237
331
1FD
  5
222
331
282
  5
35A
331
260
  5
267
331
271
  5
277
331
24F
  5
254
331
22D
  5
235
331
23E
  5
243
331
3CE
  5
1FD
331
26F
  5
274
331
24D
  5
252
331
25E
  5
264
331
23C
  5
241
331
229
  5
219
331
26D
  5
272
331
24B
  5
250
331
27E
  5
2C3
331
25C
  5
261
331
23A
  5
23F
331
26B
  5
270
331
249
  5
24E
331
227
  5
232
331
238
  5
23D
331
21E
  5
229
331
2C3
  5
383
331
247
  5
24C
331
225
  5
231
331
21C
  5
227
331
27A
  5
282
331
258
  5
25E
331
236
  5
221
331
267
  5
26E
331
245
  5
24A
331
223
  5
22F
331
278
  5
281
331
256
  5
25C
331
234
  5
23B
331
243
  5
248
331
221
  5
22D
331
35A
  5
3CE
331
254
  5
259
331
232
  5
239
331
218
  5
223
331
241
  5
246
331
274
  5
27B
331
252
  5
257
331
230
  5
21F
331
306
  5
21E
331
283
  5
36A
331
261
  5
26A
331
272
  5
278
331
250
  5
255
331
22E
  5
236
331
23F
  5
244
331
281
  5
306
331
270
  5
275
331
24E
  5
253
331
22C
  5
234
331
25F
  5
266
331
23D
  5
242
331
26E
  5
273
331
24C
  5
251
331
22A
  5
233
331
27F
  5
2C4
331
25D
  5
262
331
23B
  5
240
331
396
  5
21D
331
228
  5
218
331
383
  5
21B
331
26C
  5
271
331
24A
  5
24F
331
25B
  5
260
331
239
  5
23E
331
21F
  5
22A
331
2C4
  5
396
331
26A
  5
26F
331
248
  5
24D
331
27B
  5
283
331
259
  5
25F
331
237
  5
23C
331
21D
  5
228
  0
XRECORD
  5
451
102
{ACAD_REACTORS
330
156
102
}
330
156
100
AcDbXrecord
340
50
  0
MLINESTYLE
  5
18
102
{ACAD_REACTORS
330
17
102
}
330
17
100
AcDbMlineStyle
  2
STANDARD
 70
     0
  3

 62
   256
 51
90.0
 52
90.0
 71
     2
 49
0.5
 62
   256
  6
BYLAYER
 49
-0.5
 62
   256
  6
BYLAYER
  0
ENDSEC
  0
EOF
