  0
SECTION
  2
HEADER
  9
$ACADVER
  1
AC1012
  9
$DWGCODEPAGE
  3
ANSI_1252
  9
$INSBASE
 10
0.0
 20
0.0
 30
0.0
  9
$EXTMIN
 10
-293.0111987016207
 20
-293.9844780918156
 30
-0.0015258207003583
  9
$EXTMAX
 10
5225.645956402821
 20
5224.672677012626
 30
0.0000000349246037
  9
$LIMMIN
 10
0.0
 20
0.0
  9
$LIMMAX
 10
420.0
 20
297.0
  9
$ORTHOMODE
 70
     0
  9
$REGENMODE
 70
     1
  9
$FILLMODE
 70
     1
  9
$QTEXTMODE
 70
     0
  9
$MIRRTEXT
 70
     1
  9
$DRAGMODE
 70
     2
  9
$LTSCALE
 40
1.0
  9
$OSMODE
 70
  3071
  9
$ATTMODE
 70
     1
  9
$TEXTSIZE
 40
2.5
  9
$TRACEWID
 40
1.0
  9
$TEXTSTYLE
  7
STANDARD
  9
$CLAYER
  8
0
  9
$CELTYPE
  6
BYLAYER
  9
$CECOLOR
 62
   256
  9
$CELTSCALE
 40
1.0
  9
$DELOBJ
 70
     1
  9
$DISPSILH
 70
     0
  9
$DIMSCALE
 40
1.0
  9
$DIMASZ
 40
2.5
  9
$DIMEXO
 40
0.625
  9
$DIMDLI
 40
3.75
  9
$DIMRND
 40
0.0
  9
$DIMDLE
 40
0.0
  9
$DIMEXE
 40
1.25
  9
$DIMTP
 40
0.0
  9
$DIMTM
 40
0.0
  9
$DIMTXT
 40
2.5
  9
$DIMCEN
 40
2.5
  9
$DIMTSZ
 40
0.0
  9
$DIMTOL
 70
     0
  9
$DIMLIM
 70
     0
  9
$DIMTIH
 70
     0
  9
$DIMTOH
 70
     0
  9
$DIMSE1
 70
     0
  9
$DIMSE2
 70
     0
  9
$DIMTAD
 70
     1
  9
$DIMZIN
 70
     8
  9
$DIMBLK
  1

  9
$DIMASO
 70
     1
  9
$DIMSHO
 70
     1
  9
$DIMPOST
  1

  9
$DIMAPOST
  1

  9
$DIMALT
 70
     0
  9
$DIMALTD
 70
     3
  9
$DIMALTF
 40
0.03937007874016
  9
$DIMLFAC
 40
1.0
  9
$DIMTOFL
 70
     1
  9
$DIMTVP
 40
0.0
  9
$DIMTIX
 70
     0
  9
$DIMSOXD
 70
     0
  9
$DIMSAH
 70
     0
  9
$DIMBLK1
  1

  9
$DIMBLK2
  1

  9
$DIMSTYLE
  2
ISO-25
  9
$DIMCLRD
 70
     0
  9
$DIMCLRE
 70
     0
  9
$DIMCLRT
 70
     0
  9
$DIMTFAC
 40
1.0
  9
$DIMGAP
 40
0.625
  9
$DIMJUST
 70
     0
  9
$DIMSD1
 70
     0
  9
$DIMSD2
 70
     0
  9
$DIMTOLJ
 70
     0
  9
$DIMTZIN
 70
     8
  9
$DIMALTZ
 70
     0
  9
$DIMALTTZ
 70
     0
  9
$DIMFIT
 70
     3
  9
$DIMUPT
 70
     0
  9
$DIMUNIT
 70
     2
  9
$DIMDEC
 70
     2
  9
$DIMTDEC
 70
     2
  9
$DIMALTU
 70
     2
  9
$DIMALTTD
 70
     3
  9
$DIMTXSTY
  7
STANDARD
  9
$DIMAUNIT
 70
     0
  9
$LUNITS
 70
     2
  9
$LUPREC
 70
     4
  9
$SKETCHINC
 40
1.0
  9
$FILLETRAD
 40
100.0
  9
$AUNITS
 70
     0
  9
$AUPREC
 70
     0
  9
$MENU
  1
.
  9
$ELEVATION
 40
0.0
  9
$PELEVATION
 40
0.0
  9
$THICKNESS
 40
0.0
  9
$LIMCHECK
 70
     0
  9
$BLIPMODE
 70
     0
  9
$CHAMFERA
 40
10.0
  9
$CHAMFERB
 40
10.0
  9
$CHAMFERC
 40
20.0
  9
$CHAMFERD
 40
0.0
  9
$SKPOLY
 70
     0
  9
$TDCREATE
 40
2452626.551835880
  9
$TDUPDATE
 40
2452772.618234027
  9
$TDINDWG
 40
0.0029292824
  9
$TDUSRTIMER
 40
0.0029285880
  9
$USRTIMER
 70
     1
  9
$ANGBASE
 50
0.0
  9
$ANGDIR
 70
     0
  9
$PDMODE
 70
     0
  9
$PDSIZE
 40
0.0
  9
$PLINEWID
 40
0.0
  9
$COORDS
 70
     2
  9
$SPLFRAME
 70
     0
  9
$SPLINETYPE
 70
     6
  9
$SPLINESEGS
 70
     8
  9
$ATTDIA
 70
     0
  9
$ATTREQ
 70
     1
  9
$HANDLING
 70
-16383
  9
$HANDSEED
  5
154
  9
$SURFTAB1
 70
     6
  9
$SURFTAB2
 70
     6
  9
$SURFTYPE
 70
     6
  9
$SURFU
 70
     6
  9
$SURFV
 70
     6
  9
$UCSNAME
  2

  9
$UCSORG
 10
0.0
 20
0.0
 30
0.0
  9
$UCSXDIR
 10
1.0
 20
0.0
 30
0.0
  9
$UCSYDIR
 10
0.0
 20
1.0
 30
0.0
  9
$PUCSNAME
  2

  9
$PUCSORG
 10
0.0
 20
0.0
 30
0.0
  9
$PUCSXDIR
 10
1.0
 20
0.0
 30
0.0
  9
$PUCSYDIR
 10
0.0
 20
1.0
 30
0.0
  9
$USERI1
 70
     0
  9
$USERI2
 70
     0
  9
$USERI3
 70
     0
  9
$USERI4
 70
     0
  9
$USERI5
 70
     0
  9
$USERR1
 40
0.0
  9
$USERR2
 40
0.0
  9
$USERR3
 40
0.0
  9
$USERR4
 40
0.0
  9
$USERR5
 40
0.0
  9
$WORLDVIEW
 70
     1
  9
$SHADEDGE
 70
     3
  9
$SHADEDIF
 70
    70
  9
$TILEMODE
 70
     1
  9
$MAXACTVP
 70
    64
  9
$PINSBASE
 10
0.0
 20
0.0
 30
0.0
  9
$PLIMCHECK
 70
     0
  9
$PEXTMIN
 10
0.0
 20
0.0
 30
0.0
  9
$PEXTMAX
 10
0.0
 20
0.0
 30
0.0
  9
$PLIMMIN
 10
0.0
 20
0.0
  9
$PLIMMAX
 10
12.0
 20
9.0
  9
$UNITMODE
 70
     0
  9
$VISRETAIN
 70
     1
  9
$PLINEGEN
 70
     0
  9
$PSLTSCALE
 70
     1
  9
$TREEDEPTH
 70
  3020
  9
$PICKSTYLE
 70
     1
  9
$CMLSTYLE
  2
STANDARD
  9
$CMLJUST
 70
     0
  9
$CMLSCALE
 40
20.0
  9
$SAVEIMAGES
 70
     1
  0
ENDSEC
  0
SECTION
  2
CLASSES
  0
CLASS
  1
ACDBDICTIONARYWDFLT
  2
AcDbDictionaryWithDefault
  3
AutoCAD 2000
 90
    32768
280
     0
281
     0
  0
CLASS
  1
ACDBPLACEHOLDER
  2
AcDbPlaceHolder
  3
AutoCAD 2000
 90
    32768
280
     0
281
     0
  0
CLASS
  1
LAYOUT
  2
AcDbLayout
  3
AutoCAD 2000
 90
    32768
280
     0
281
     0
  0
CLASS
  1
LONG_TRANSACTION
  2
AcDbLongTransaction
  3
AutoCAD 2000
 90
    32768
280
     0
281
     0
  0
CLASS
  1
LWPOLYLINE
  2
AcDbPolyline
  3
AutoCAD 2000
 90
    32768
280
     0
281
     1
  0
CLASS
  1
HATCH
  2
AcDbHatch
  3
AutoCAD 2000
 90
    32768
280
     0
281
     1
  0
CLASS
  1
XRECORD
  2
AcDbXrecord
  3
AutoCAD 2000
 90
    32768
280
     0
281
     0
  0
CLASS
  1
LONG_TRANSACTION
  2
AcDbLongTransaction
  3
AutoCAD 2000
 90
    32768
280
     0
281
     0
  0
CLASS
  1
LWPOLYLINE
  2
AcDbPolyline
  3
AutoCAD 2000
 90
    32768
280
     0
281
     1
  0
CLASS
  1
HATCH
  2
AcDbHatch
  3
AutoCAD 2000
 90
    32768
280
     0
281
     1
  0
CLASS
  1
XRECORD
  2
AcDbXrecord
  3
AutoCAD 2000
 90
    32768
280
     0
281
     0
  0
CLASS
  1
LONG_TRANSACTION
  2
AcDbLongTransaction
  3
AutoCAD 2000
 90
    32768
280
     0
281
     0
  0
CLASS
  1
LWPOLYLINE
  2
AcDbPolyline
  3
AutoCAD 2000
 90
    32768
280
     0
281
     1
  0
CLASS
  1
HATCH
  2
AcDbHatch
  3
AutoCAD 2000
 90
    32768
280
     0
281
     1
  0
CLASS
  1
XRECORD
  2
AcDbXrecord
  3
AutoCAD 2000
 90
    32768
280
     0
281
     0
  0
CLASS
  1
DICTIONARYVAR
  2
AcDbDictionaryVar
  3
AutoCAD 2000
 90
    32768
280
     0
281
     0
  0
CLASS
  1
SORTENTSTABLE
  2
AcDbSortentsTable
  3
AutoCAD 2000
 90
    32768
280
     0
281
     0
  0
CLASS
  1
LONG_TRANSACTION
  2
AcDbLongTransaction
  3
AutoCAD 2000
 90
    32768
280
     0
281
     0
  0
CLASS
  1
LWPOLYLINE
  2
AcDbPolyline
  3
AutoCAD 2000
 90
    32768
280
     0
281
     1
  0
CLASS
  1
HATCH
  2
AcDbHatch
  3
AutoCAD 2000
 90
    32768
280
     0
281
     1
  0
CLASS
  1
XRECORD
  2
AcDbXrecord
  3
AutoCAD 2000
 90
    32768
280
     0
281
     0
  0
ENDSEC
  0
SECTION
  2
TABLES
  0
TABLE
  2
VPORT
  5
8
330
0
100
AcDbSymbolTable
 70
     2
  0
VPORT
  5
134
330
8
100
AcDbSymbolTableRecord
100
AcDbViewportTableRecord
  2
*ACTIVE
 70
     0
 10
0.0
 20
0.0
 11
1.0
 21
1.0
 12
2466.3173788506
 22
2465.344099460404
 13
0.0
 23
0.0
 14
10.0
 24
10.0
 15
10.0
 25
10.0
 16
0.0
 26
0.0
 36
1.0
 17
0.0
 27
0.0
 37
0.0
 40
5587.784384604706
 41
1.985355648535564
 42
50.0
 43
0.0
 44
0.0
 50
0.0
 51
0.0
 71
     0
 72
   100
 73
     1
 74
     3
 75
     0
 76
     0
 77
     0
 78
     0
  0
ENDTAB
  0
TABLE
  2
LTYPE
  5
5
330
0
100
AcDbSymbolTable
 70
     1
  0
LTYPE
  5
14
330
5
100
AcDbSymbolTableRecord
100
AcDbLinetypeTableRecord
  2
BYBLOCK
 70
     0
  3

 72
    65
 73
     0
 40
0.0
  0
LTYPE
  5
15
330
5
100
AcDbSymbolTableRecord
100
AcDbLinetypeTableRecord
  2
BYLAYER
 70
     0
  3

 72
    65
 73
     0
 40
0.0
  0
LTYPE
  5
16
330
5
100
AcDbSymbolTableRecord
100
AcDbLinetypeTableRecord
  2
CONTINUOUS
 70
     0
  3
Solid line
 72
    65
 73
     0
 40
0.0
  0
ENDTAB
  0
TABLE
  2
LAYER
  5
2
330
0
100
AcDbSymbolTable
 70
     5
  0
LAYER
  5
10
330
2
100
AcDbSymbolTableRecord
100
AcDbLayerTableRecord
  2
0
 70
     0
 62
     7
  6
CONTINUOUS
  0
LAYER
  5
5D
330
2
100
AcDbSymbolTableRecord
100
AcDbLayerTableRecord
  2
SAFETY
 70
     0
 62
     7
  6
CONTINUOUS
  0
LAYER
  5
5E
330
2
100
AcDbSymbolTableRecord
100
AcDbLayerTableRecord
  2
OBJECT
 70
     0
 62
     7
  6
CONTINUOUS
  0
LAYER
  5
E5
330
2
100
AcDbSymbolTableRecord
100
AcDbLayerTableRecord
  2
TEKST
 70
     0
 62
     7
  6
CONTINUOUS
  0
LAYER
  5
123
330
2
100
AcDbSymbolTableRecord
100
AcDbLayerTableRecord
  2
HATCH
 70
     0
 62
     7
  6
CONTINUOUS
  0
ENDTAB
  0
TABLE
  2
STYLE
  5
3
330
0
100
AcDbSymbolTable
 70
     1
  0
STYLE
  5
11
330
3
100
AcDbSymbolTableRecord
100
AcDbTextStyleTableRecord
  2
STANDARD
 70
     0
 40
0.0
 41
1.0
 50
0.0
 71
     0
 42
2.5
  3
txt
  4

  0
ENDTAB
  0
TABLE
  2
VIEW
  5
6
330
0
100
AcDbSymbolTable
 70
     0
  0
ENDTAB
  0
TABLE
  2
UCS
  5
7
330
0
100
AcDbSymbolTable
 70
     0
  0
ENDTAB
  0
TABLE
  2
APPID
  5
9
330
0
100
AcDbSymbolTable
 70
     2
  0
APPID
  5
12
330
9
100
AcDbSymbolTableRecord
100
AcDbRegAppTableRecord
  2
ACAD
 70
     0
  0
APPID
  5
DE
330
9
100
AcDbSymbolTableRecord
100
AcDbRegAppTableRecord
  2
CONTENTBLOCKICON
 70
     0
  0
ENDTAB
  0
TABLE
  2
DIMSTYLE
  5
A
330
0
100
AcDbSymbolTable
 70
     2
  0
DIMSTYLE
105
27
330
A
100
AcDbSymbolTableRecord
100
AcDbDimStyleTableRecord
  2
ISO-25
 70
     0
  3

  4

  5

  6

  7

 40
1.0
 41
2.5
 42
0.625
 43
3.75
 44
1.25
 45
0.0
 46
0.0
 47
0.0
 48
0.0
140
2.5
141
2.5
142
0.0
143
0.03937007874016
144
1.0
145
0.0
146
1.0
147
0.625
 71
     0
 72
     0
 73
     0
 74
     0
 75
     0
 76
     0
 77
     1
 78
     8
170
     0
171
     3
172
     1
173
     0
174
     0
175
     0
176
     0
177
     0
178
     0
270
     2
271
     2
272
     2
273
     2
274
     3
340
11
275
     0
280
     0
281
     0
282
     0
283
     0
284
     8
285
     0
286
     0
287
     3
288
     0
  0
DIMSTYLE
105
5F
330
A
100
AcDbSymbolTableRecord
100
AcDbDimStyleTableRecord
  2
SAF-W
 70
     0
  3

  4

  5

  6

  7

 40
50.0
 41
2.5
 42
2.0
 43
0.5
 44
1.0
 45
0.0
 46
0.0
 47
0.0
 48
0.0
140
2.5
141
0.09
142
0.0
143
25.4
144
1.0
145
0.0
146
1.0
147
0.5
 71
     0
 72
     0
 73
     0
 74
     0
 75
     0
 76
     0
 77
     1
 78
     8
170
     0
171
     2
172
     1
173
     0
174
     0
175
     0
176
   256
177
   256
178
   256
270
     2
271
     0
272
     0
273
     2
274
     2
340
11
275
     0
280
     0
281
     0
282
     0
283
     1
284
     0
285
     0
286
     0
287
     3
288
     0
  0
ENDTAB
  0
TABLE
  2
BLOCK_RECORD
  5
1
330
0
100
AcDbSymbolTable
 70
     2
  0
BLOCK_RECORD
  5
1F
102
{ACAD_XDICTIONARY
360
9E
102
}
330
1
100
AcDbSymbolTableRecord
100
AcDbBlockTableRecord
  2
*MODEL_SPACE
  0
BLOCK_RECORD
  5
50
102
{ACAD_XDICTIONARY
360
A0
102
}
330
1
100
AcDbSymbolTableRecord
100
AcDbBlockTableRecord
  2
*PAPER_SPACE
  0
BLOCK_RECORD
  5
AA
330
1
100
AcDbSymbolTableRecord
100
AcDbBlockTableRecord
  2
ACKG
1001
ACAD
1000
DesignCenter Data
1002
{
1070
     1
1070
     4
1002
}
1001
CONTENTBLOCKICON
1071
        0
1004
28000000200000002000000001000800000000000004000000000000000000000000000000000000000000004000000080000000FF000000002000004020000080200000FF200000004000004040000080400000FF400000006000004060000080600000FF600000008000004080000080800000FF80000000A0000040A000
1004
0080A00000FFA0000000C0000040C0000080C00000FFC0000000FF000040FF000080FF0000FFFF0000000020004000200080002000FF002000002020004020200080202000FF202000004020004040200080402000FF402000006020004060200080602000FF602000008020004080200080802000FF80200000A0200040A0
1004
200080A02000FFA0200000C0200040C0200080C02000FFC0200000FF200040FF200080FF2000FFFF2000000040004000400080004000FF004000002040004020400080204000FF204000004040004040400080404000FF404000006040004060400080604000FF604000008040004080400080804000FF80400000A0400040
1004
A0400080A04000FFA0400000C0400040C0400080C04000FFC0400000FF400040FF400080FF4000FFFF4000000060004000600080006000FF006000002060004020600080206000FF206000004060004040600080406000FF406000006060004060600080606000FF606000008060004080600080806000FF80600000A06000
1004
40A0600080A06000FFA0600000C0600040C0600080C06000FFC0600000FF600040FF600080FF6000FFFF6000000080004000800080008000FF008000002080004020800080208000FF208000004080004040800080408000FF408000006080004060800080608000FF608000008080004080800080808000FF80800000A080
1004
0040A0800080A08000FFA0800000C0800040C0800080C08000FFC0800000FF800040FF800080FF8000FFFF80000000A0004000A0008000A000FF00A0000020A0004020A0008020A000FF20A0000040A0004040A0008040A000FF40A0000060A0004060A0008060A000FF60A0000080A0004080A0008080A000FF80A00000A0
1004
A00040A0A00080A0A000FFA0A00000C0A00040C0A00080C0A000FFC0A00000FFA00040FFA00080FFA000FFFFA0000000C0004000C0008000C000FF00C0000020C0004020C0008020C000FF20C0000040C0004040C0008040C000FF40C0000060C0004060C0008060C000FF60C0000080C0004080C0008080C000FF80C00000
1004
A0C00040A0C00080A0C000FFA0C00000C0C00040C0C00080C0C000FFC0C00000FFC00040FFC00080FFC000FFFFC0000000FF004000FF008000FF00FF00FF000020FF004020FF008020FF00FF20FF000040FF004040FF008040FF00FF40FF000060FF004060FF008060FF00FF60FF000080FF004080FF008080FF00FF80FF00
1004
00A0FF0040A0FF0080A0FF00FFA0FF0000C0FF0040C0FF0080C0FF00FFC0FF0000FFFF0040FFFF0080FFFF00FFFFFF00000000000000000000000000000000000000000000000000000000000000000000000000000000000000FFFFFFFFFFFFFFFFFFFFFFFF00000000000000000000000000000000FFFFFFFF0000000000
1004
00000000000000FFFFFFFF0000000000000000000000FF0000000000000000000000000000000000000000FF000000000000000000FF00000000000000000000000000000000000000000000FF00000000000000FF000000000000000000000000000000000000000000000000FF0000000000FF0000000000000000000000
1004
000000000000000000000000000000FF00000000FF0000000000000000000000000000000000000000000000000000FF00000000FF0000000000000000000000000000000000000000000000000000FF00000000FF0000000000001C1C1C1C1C1C1C1C1C1C1C1C1C1C00000000000000FF0000FF000000000000001C000000
1004
0000000000000000001C00000000000000FF0000FF000000000000001C0000000000000000000000001C00000000000000FF0000FF000000000000001C0000000000000000000000001C00000000000000FF0000FF000000000000001C0000000000000000000000001C00000000000000FF0000FF000000000000001C0000
1004
000000000000000000001C00000000000000FF0000FF000000000000001C1C1C1C1C1C1C1C1C1C1C1C1C1C00000000000000FF0000FF000000000000001C0000000000000000000000001C00000000000000FF0000FF000000000000001C0000000000000000000000001C00000000000000FF0000FF000000000000001C00
1004
00000000000000000000001C00000000000000FF0000FF000000000000001C0000000000000000000000001C00000000000000FF0000FF000000000000001C0000000000000000000000001C00000000000000FF0000FF000000000000001C0000000000000000000000001C00000000000000FF000000FF0000000000001C
1004
1C1C1C1C1C1C1C1C1C1C1C1C1C00000000000000FF000000FF0000000000000000000000000000000000000000000000000000FF00000000FF0000000000000000000000000000000000000000000000000000FF00000000FF00000000000000000000FFFFFFFFFFFF00000000000000000000FF0000000000FF0000000000
1004
00000000FFFFFFFFFFFF000000000000000000FF00000000000000FF00000000000000000000000000000000000000000000FF000000000000000000FF0000000000000000000000000000000000000000FF0000000000000000000000FFFFFF0000000000000000000000000000FFFFFF0000000000000000000000000000
1004
00FFFFFFFFFFFFFFFFFFFFFFFFFFFF0000000000000000000000000000000000000000000000000000000000000000000000000000000000
  0
BLOCK_RECORD
  5
138
330
1
100
AcDbSymbolTableRecord
100
AcDbBlockTableRecord
  2
*U1
  0
ENDTAB
  0
ENDSEC
  0
SECTION
  2
BLOCKS
  0
BLOCK
  5
20
330
1F
100
AcDbEntity
  8
0
100
AcDbBlockBegin
  2
*MODEL_SPACE
 70
     0
 10
0.0
 20
0.0
 30
0.0
  3
*MODEL_SPACE
  1

  0
ENDBLK
  5
21
330
1F
100
AcDbEntity
  8
0
100
AcDbBlockEnd
  0
BLOCK
  5
52
330
50
100
AcDbEntity
 67
     1
  8
0
100
AcDbBlockBegin
  2
*PAPER_SPACE
 70
     0
 10
0.0
 20
0.0
 30
0.0
  3
*PAPER_SPACE
  1

  0
ENDBLK
  5
53
330
50
100
AcDbEntity
 67
     1
  8
0
100
AcDbBlockEnd
  0
BLOCK
  5
AB
330
AA
100
AcDbEntity
  8
0
100
AcDbBlockBegin
  2
ACKG
 70
     0
 10
0.0
 20
0.0
 30
0.0
  3
ACKG
  1

  0
INSERT
  5
125
330
AA
100
AcDbEntity
  8
HATCH
  6
CONTINUOUS
 62
     3
100
AcDbBlockReference
  2
*U1
 10
0.0
 20
0.0
 30
0.0
1001
ACAD
1002
{
1000
R14_HATCH_DATA
1000
125
1011
1.0
1021
0.0
1031
0.0
1011
0.0
1021
1.0
1031
0.0
1011
0.0
1021
0.0
1031
1.0
1040
0.0
1010
0.0
1020
0.0
1030
1.0
1000
SOLID
1070
     1
1070
     1
1071
        2
1071
        7
1070
     1
1070
     1
1071
        6
1040
3614.81736600226
1040
2465.344086612065
1040
0.0
1040
3614.81736600226
1040
3484.207771131991
1040
0.4142135623730951
1040
3514.81736600226
1040
3584.207771131991
1040
0.0
1040
1417.81736600226
1040
3584.207771131991
1040
0.4142135623730951
1040
1317.81736600226
1040
3484.207771131991
1040
0.0
1040
1317.81736600226
1040
2465.344086612065
1040
0.0
1071
        6
1005
130
1005
128
1005
12F
1005
12C
1005
12A
1005
12E
1071
        7
1070
     1
1070
     1
1071
        6
1040
3514.81736600226
1040
1346.480402092137
1040
0.4142135623730951
1040
3614.81736600226
1040
1446.480402092137
1040
0.0
1040
3614.81736600226
1040
2465.344086612065
1040
0.0
1040
1317.81736600226
1040
2465.344086612065
1040
0.0
1040
1317.81736600226
1040
1446.480402092137
1040
0.4142135623730951
1040
1417.81736600226
1040
1346.480402092137
1040
0.0
1071
        6
1005
12A
1005
12B
1005
132
1005
129
1005
131
1005
12D
1070
     0
1070
     1
1040
11.66552063591796
1071
        2
1040
2507.189040480872
1040
2873.637330221768
1040
0.0
1040
2542.221937633803
1040
1823.740457812495
1040
0.0
1002
}
  0
MTEXT
  5
126
330
AA
100
AcDbEntity
  8
TEKST
100
AcDbMText
 10
2028.429144737623
 20
4349.384854399857
 30
0.0
 40
75.18097186823435
 41
868.6785999999997
 71
     1
 72
     1
  1
{\FIMPACT.TTF;Hoogte: 244 cm\PMax. valhoogte: 90 cm}
1001
ACAD
1000
MTEXTBEGIN
1070
    73
1070
     1
1070
    44
1040
1.0
1070
    74
1070
     0
1000
MTEXTEND
1000
MTEXTBEGIN
1070
    73
1070
     1
1070
    44
1040
1.0
1070
    74
1070
     0
1000
MTEXTEND
  0
POLYLINE
  5
127
330
AA
100
AcDbEntity
  8
SAFETY
 48
20.0
100
AcDb2dPolyline
 66
     1
 10
0.0
 20
0.0
 30
0.0
 70
     1
  0
VERTEX
  5
14B
330
127
100
AcDbEntity
  8
SAFETY
 48
20.0
100
AcDbVertex
100
AcDb2dVertex
 10
1517.817366002257
 20
16.84408661206473
 30
0.0
  0
VERTEX
  5
14C
330
127
100
AcDbEntity
  8
SAFETY
 48
20.0
100
AcDbVertex
100
AcDb2dVertex
 10
3414.81736600226
 20
16.84408661206655
 30
0.0
 42
0.4142135623730951
  0
VERTEX
  5
14D
330
127
100
AcDbEntity
  8
SAFETY
 48
20.0
100
AcDbVertex
100
AcDb2dVertex
 10
4914.81736600226
 20
1516.844086612066
 30
0.0
  0
VERTEX
  5
14E
330
127
100
AcDbEntity
  8
SAFETY
 48
20.0
100
AcDbVertex
100
AcDb2dVertex
 10
4914.81736600226
 20
3413.844086612066
 30
0.0
 42
0.4142135623730951
  0
VERTEX
  5
14F
330
127
100
AcDbEntity
  8
SAFETY
 48
20.0
100
AcDbVertex
100
AcDb2dVertex
 10
3414.81736600226
 20
4913.844086612066
 30
0.0
  0
VERTEX
  5
150
330
127
100
AcDbEntity
  8
SAFETY
 48
20.0
100
AcDbVertex
100
AcDb2dVertex
 10
1517.817366002257
 20
4913.844086612065
 30
0.0
 42
0.4142135623730951
  0
VERTEX
  5
151
330
127
100
AcDbEntity
  8
SAFETY
 48
20.0
100
AcDbVertex
100
AcDb2dVertex
 10
17.81736600225872
 20
3413.844086612064
 30
0.0
  0
VERTEX
  5
152
330
127
100
AcDbEntity
  8
SAFETY
 48
20.0
100
AcDbVertex
100
AcDb2dVertex
 10
17.81736600225872
 20
1516.844086612064
 30
0.0
 42
0.4142135623730951
  0
SEQEND
  5
153
330
127
100
AcDbEntity
  8
SAFETY
 48
20.0
  0
LINE
  5
128
330
AA
100
AcDbEntity
  8
OBJECT
100
AcDbLine
 10
1417.81736600226
 20
3584.207771131991
 30
0.0
 11
3514.81736600226
 21
3584.207771131991
 31
0.0
  0
LINE
  5
129
330
AA
100
AcDbEntity
  8
OBJECT
100
AcDbLine
 10
3514.81736600226
 20
1346.480402092137
 30
0.0
 11
1417.81736600226
 21
1346.480402092137
 31
0.0
  0
LINE
  5
12A
330
AA
100
AcDbEntity
  8
OBJECT
100
AcDbLine
 10
1317.81736600226
 20
2465.344086612065
 30
0.0
 11
3614.81736600226
 21
2465.344086612065
 31
0.0
  0
LINE
  5
12B
330
AA
100
AcDbEntity
  8
OBJECT
100
AcDbLine
 10
1317.81736600226
 20
2465.344086612065
 30
0.0
 11
1317.81736600226
 21
1446.480402092137
 31
0.0
  0
LINE
  5
12C
330
AA
100
AcDbEntity
  8
OBJECT
100
AcDbLine
 10
1317.81736600226
 20
3484.207771131991
 30
0.0
 11
1317.81736600226
 21
2465.344086612065
 31
0.0
  0
LINE
  5
12D
330
AA
100
AcDbEntity
  8
OBJECT
100
AcDbLine
 10
3614.81736600226
 20
1446.480402092137
 30
0.0
 11
3614.81736600226
 21
2465.344086612066
 31
0.0
  0
LINE
  5
12E
330
AA
100
AcDbEntity
  8
OBJECT
100
AcDbLine
 10
3614.81736600226
 20
2465.344086612065
 30
0.0
 11
3614.81736600226
 21
3484.207771131991
 31
0.0
  0
ARC
  5
12F
330
AA
100
AcDbEntity
  8
OBJECT
100
AcDbCircle
 10
1417.81736600226
 20
3484.207771131991
 30
0.0
 40
100.0
100
AcDbArc
 50
90.0
 51
180.0
  0
ARC
  5
130
330
AA
100
AcDbEntity
  8
OBJECT
100
AcDbCircle
 10
3514.81736600226
 20
3484.207771131991
 30
0.0
 40
100.0
100
AcDbArc
 50
0.0
 51
90.0
  0
ARC
  5
131
330
AA
100
AcDbEntity
  8
OBJECT
100
AcDbCircle
 10
3514.81736600226
 20
1446.480402092137
 30
0.0
 40
100.0
100
AcDbArc
 50
270.0
 51
0.0
  0
ARC
  5
132
330
AA
100
AcDbEntity
  8
OBJECT
100
AcDbCircle
 10
1417.81736600226
 20
1446.480402092137
 30
0.0
 40
100.0
100
AcDbArc
 50
180.0
 51
270.0
  0
ENDBLK
  5
AC
330
AA
100
AcDbEntity
  8
0
100
AcDbBlockEnd
  0
BLOCK
  5
149
330
138
100
AcDbEntity
  8
0
100
AcDbBlockBegin
  2
*U1
 70
     1
 10
0.0
 20
0.0
 30
0.0
  3
*U1
  1

  0
SOLID
  5
139
330
138
100
AcDbEntity
  8
HATCH
  6
CONTINUOUS
 62
     3
100
AcDbTrace
 10
3614.81736600226
 20
2465.344086612065
 30
0.0
 11
3614.81736600226
 21
3484.207771131991
 31
0.0
 12
1317.81736600226
 22
2465.344086612065
 32
0.0
 13
1317.81736600226
 23
2465.344086612065
 33
0.0
210
0.0
220
0.0
230
1.0
  0
SOLID
  5
13A
330
138
100
AcDbEntity
  8
HATCH
  6
CONTINUOUS
 62
     3
100
AcDbTrace
 10
3601.419906380705
 20
3534.207771131991
 30
0.0
 11
1317.81736600226
 21
2465.344086612065
 31
0.0
 12
3614.81736600226
 22
3484.207771131991
 32
0.0
 13
3614.81736600226
 23
3484.207771131991
 33
0.0
  0
SOLID
  5
13B
330
138
100
AcDbEntity
  8
HATCH
  6
CONTINUOUS
 62
     3
100
AcDbTrace
 10
1317.81736600226
 20
2465.344086612065
 30
0.0
 11
3601.419906380705
 21
3534.207771131991
 31
0.0
 12
1317.81736600226
 22
3484.207771131991
 32
0.0
 13
1317.81736600226
 23
3484.207771131991
 33
0.0
210
0.0
220
0.0
230
1.0
  0
SOLID
  5
13C
330
138
100
AcDbEntity
  8
HATCH
  6
CONTINUOUS
 62
     3
100
AcDbTrace
 10
3564.817366002261
 20
3570.810311510435
 30
0.0
 11
1317.81736600226
 21
3484.207771131991
 31
0.0
 12
3601.419906380705
 22
3534.207771131991
 32
0.0
 13
3601.419906380705
 23
3534.207771131991
 33
0.0
210
0.0
220
0.0
230
1.0
  0
SOLID
  5
13D
330
138
100
AcDbEntity
  8
HATCH
  6
CONTINUOUS
 62
     3
100
AcDbTrace
 10
1317.81736600226
 20
3484.207771131991
 30
0.0
 11
3564.817366002261
 21
3570.810311510435
 31
0.0
 12
1331.214825623816
 22
3534.207771131991
 32
0.0
 13
1331.214825623816
 23
3534.207771131991
 33
0.0
210
0.0
220
0.0
230
1.0
  0
SOLID
  5
13E
330
138
100
AcDbEntity
  8
HATCH
  6
CONTINUOUS
 62
     3
100
AcDbTrace
 10
3514.81736600226
 20
3584.207771131991
 30
0.0
 11
1331.214825623816
 21
3534.207771131991
 31
0.0
 12
3564.817366002261
 22
3570.810311510435
 32
0.0
 13
3564.817366002261
 23
3570.810311510435
 33
0.0
210
0.0
220
0.0
230
1.0
  0
SOLID
  5
13F
330
138
100
AcDbEntity
  8
HATCH
  6
CONTINUOUS
 62
     3
100
AcDbTrace
 10
1331.214825623816
 20
3534.207771131991
 30
0.0
 11
3514.81736600226
 21
3584.207771131991
 31
0.0
 12
1367.81736600226
 22
3570.810311510434
 32
0.0
 13
1367.81736600226
 23
3570.810311510434
 33
0.0
210
0.0
220
0.0
230
1.0
  0
SOLID
  5
140
330
138
100
AcDbEntity
  8
HATCH
  6
CONTINUOUS
 62
     3
100
AcDbTrace
 10
1417.81736600226
 20
3584.207771131991
 30
0.0
 11
1367.81736600226
 21
3570.810311510434
 31
0.0
 12
3514.81736600226
 22
3584.207771131991
 32
0.0
 13
3514.81736600226
 23
3584.207771131991
 33
0.0
210
0.0
220
0.0
230
1.0
  0
SOLID
  5
141
330
138
100
AcDbEntity
  8
HATCH
  6
CONTINUOUS
 62
     3
100
AcDbTrace
 10
3514.81736600226
 20
1346.480402092137
 30
0.0
 11
3564.81736600226
 21
1359.877861713693
 31
0.0
 12
1417.81736600226
 22
1346.480402092137
 32
0.0
 13
1417.81736600226
 23
1346.480402092137
 33
0.0
210
0.0
220
0.0
230
1.0
  0
SOLID
  5
142
330
138
100
AcDbEntity
  8
HATCH
  6
CONTINUOUS
 62
     3
100
AcDbTrace
 10
3601.419906380703
 20
1396.480402092137
 30
0.0
 11
1417.81736600226
 21
1346.480402092137
 31
0.0
 12
3564.81736600226
 22
1359.877861713693
 32
0.0
 13
3564.81736600226
 23
1359.877861713693
 33
0.0
210
0.0
220
0.0
230
1.0
  0
SOLID
  5
143
330
138
100
AcDbEntity
  8
HATCH
  6
CONTINUOUS
 62
     3
100
AcDbTrace
 10
1417.81736600226
 20
1346.480402092137
 30
0.0
 11
3601.419906380703
 21
1396.480402092137
 31
0.0
 12
1367.81736600226
 22
1359.877861713693
 32
0.0
 13
1367.81736600226
 23
1359.877861713693
 33
0.0
210
0.0
220
0.0
230
1.0
  0
SOLID
  5
144
330
138
100
AcDbEntity
  8
HATCH
  6
CONTINUOUS
 62
     3
100
AcDbTrace
 10
3614.81736600226
 20
1446.480402092137
 30
0.0
 11
1367.81736600226
 21
1359.877861713693
 31
0.0
 12
3601.419906380703
 22
1396.480402092137
 32
0.0
 13
3601.419906380703
 23
1396.480402092137
 33
0.0
210
0.0
220
0.0
230
1.0
  0
SOLID
  5
145
330
138
100
AcDbEntity
  8
HATCH
  6
CONTINUOUS
 62
     3
100
AcDbTrace
 10
1367.81736600226
 20
1359.877861713693
 30
0.0
 11
3614.81736600226
 21
1446.480402092137
 31
0.0
 12
1331.214825623816
 22
1396.480402092137
 32
0.0
 13
1331.214825623816
 23
1396.480402092137
 33
0.0
210
0.0
220
0.0
230
1.0
  0
SOLID
  5
146
330
138
100
AcDbEntity
  8
HATCH
  6
CONTINUOUS
 62
     3
100
AcDbTrace
 10
3614.81736600226
 20
2465.344086612065
 30
0.0
 11
1331.214825623816
 21
1396.480402092137
 31
0.0
 12
3614.81736600226
 22
1446.480402092137
 32
0.0
 13
3614.81736600226
 23
1446.480402092137
 33
0.0
210
0.0
220
0.0
230
1.0
  0
SOLID
  5
147
330
138
100
AcDbEntity
  8
HATCH
  6
CONTINUOUS
 62
     3
100
AcDbTrace
 10
1331.214825623816
 20
1396.480402092137
 30
0.0
 11
3614.81736600226
 21
2465.344086612065
 31
0.0
 12
1317.81736600226
 22
1446.480402092137
 32
0.0
 13
1317.81736600226
 23
1446.480402092137
 33
0.0
  0
SOLID
  5
148
330
138
100
AcDbEntity
  8
HATCH
  6
CONTINUOUS
 62
     3
100
AcDbTrace
 10
1317.81736600226
 20
2465.344086612065
 30
0.0
 11
1317.81736600226
 21
1446.480402092137
 31
0.0
 12
3614.81736600226
 22
2465.344086612065
 32
0.0
 13
3614.81736600226
 23
2465.344086612065
 33
0.0
210
0.0
220
0.0
230
1.0
  0
ENDBLK
  5
14A
330
138
100
AcDbEntity
  8
0
100
AcDbBlockEnd
  0
ENDSEC
  0
SECTION
  2
ENTITIES
  0
INSERT
  5
133
330
1F
100
AcDbEntity
  8
0
100
AcDbBlockReference
  2
ACKG
 10
0.0
 20
0.0
 30
0.0
  0
ENDSEC
  0
SECTION
  2
OBJECTS
  0
DICTIONARY
  5
C
330
0
100
AcDbDictionary
  3
ACAD_GROUP
350
D
  3
ACAD_LAYOUT
350
1A
  3
ACAD_MLINESTYLE
350
17
  3
ACAD_PLOTSETTINGS
350
19
1001
ACAD
1000
TREAT_AS_HARD
1070
     0
1000
TREAT_AS_HARD
1070
     0
  0
DICTIONARY
  5
9E
330
1F
100
AcDbDictionary
  3
ACAD_LAYOUTSELFREF
350
135
  3
ACAD_SORTENTS
350
124
1001
ACAD
1000
TREAT_AS_HARD
1070
     1
1000
TREAT_AS_HARD
1070
     0
  0
DICTIONARY
  5
A0
330
50
100
AcDbDictionary
  3
ACAD_LAYOUTSELFREF
350
136
1001
ACAD
1000
TREAT_AS_HARD
1070
     1
1000
TREAT_AS_HARD
1070
     0
  0
DICTIONARY
  5
D
102
{ACAD_REACTORS
330
C
102
}
330
C
100
AcDbDictionary
1001
ACAD
1000
TREAT_AS_HARD
1070
     0
1000
TREAT_AS_HARD
1070
     0
  0
DICTIONARY
  5
1A
102
{ACAD_REACTORS
330
C
102
}
330
C
100
AcDbDictionary
1001
ACAD
1000
TREAT_AS_HARD
1070
     0
1000
TREAT_AS_HARD
1070
     0
  0
DICTIONARY
  5
17
102
{ACAD_REACTORS
330
C
102
}
330
C
100
AcDbDictionary
  3
STANDARD
350
18
1001
ACAD
1000
TREAT_AS_HARD
1070
     0
1000
TREAT_AS_HARD
1070
     0
  0
DICTIONARY
  5
19
102
{ACAD_REACTORS
330
C
102
}
330
C
100
AcDbDictionary
1001
ACAD
1000
TREAT_AS_HARD
1070
     0
1000
TREAT_AS_HARD
1070
     0
  0
XRECORD
  5
135
102
{ACAD_REACTORS
330
9E
102
}
330
9E
100
AcDbXrecord
340
1F
  0
SORTENTSTABLE
  5
124
102
{ACAD_REACTORS
330
9E
102
}
330
9E
100
AcDbSortentsTable
330
1F
331
106
  5
107
331
104
  5
105
331
111
  5
112
331
122
  5
EC
331
10F
  5
110
331
10D
  5
10F
331
10B
  5
10D
331
109
  5
10B
331
107
  5
109
331
105
  5
106
331
103
  5
104
331
112
  5
122
331
110
  5
111
331
EC
  5
103
  0
XRECORD
  5
136
102
{ACAD_REACTORS
330
A0
102
}
330
A0
100
AcDbXrecord
340
50
  0
MLINESTYLE
  5
18
102
{ACAD_REACTORS
330
17
102
}
330
17
100
AcDbMlineStyle
  2
STANDARD
 70
     0
  3

 62
   256
 51
90.0
 52
90.0
 71
     2
 49
0.5
 62
   256
  6
BYLAYER
 49
-0.5
 62
   256
  6
BYLAYER
  0
ENDSEC
  0
EOF
