  0
SECTION
  2
HEADER
  9
$ACADVER
  1
AC1012
  9
$DWGCODEPAGE
  3
ANSI_1252
  9
$INSBASE
 10
0.0
 20
0.0
 30
0.0
  9
$EXTMIN
 10
-293.1237777641654
 20
-293.1021815110761
 30
-0.0015258207003583
  9
$EXTMAX
 10
8914.767981948171
 20
7854.992199651755
 30
0.0000000349246037
  9
$LIMMIN
 10
0.0
 20
0.0
  9
$LIMMAX
 10
420.0
 20
297.0
  9
$ORTHOMODE
 70
     0
  9
$REGENMODE
 70
     1
  9
$FILLMODE
 70
     1
  9
$QTEXTMODE
 70
     0
  9
$MIRRTEXT
 70
     1
  9
$DRAGMODE
 70
     2
  9
$LTSCALE
 40
1.0
  9
$OSMODE
 70
  3071
  9
$ATTMODE
 70
     1
  9
$TEXTSIZE
 40
2.5
  9
$TRACEWID
 40
1.0
  9
$TEXTSTYLE
  7
STANDARD
  9
$CLAYER
  8
HATCH
  9
$CELTYPE
  6
BYLAYER
  9
$CECOLOR
 62
   256
  9
$CELTSCALE
 40
1.0
  9
$DELOBJ
 70
     1
  9
$DISPSILH
 70
     0
  9
$DIMSCALE
 40
1.0
  9
$DIMASZ
 40
2.5
  9
$DIMEXO
 40
0.625
  9
$DIMDLI
 40
3.75
  9
$DIMRND
 40
0.0
  9
$DIMDLE
 40
0.0
  9
$DIMEXE
 40
1.25
  9
$DIMTP
 40
0.0
  9
$DIMTM
 40
0.0
  9
$DIMTXT
 40
2.5
  9
$DIMCEN
 40
2.5
  9
$DIMTSZ
 40
0.0
  9
$DIMTOL
 70
     0
  9
$DIMLIM
 70
     0
  9
$DIMTIH
 70
     0
  9
$DIMTOH
 70
     0
  9
$DIMSE1
 70
     0
  9
$DIMSE2
 70
     0
  9
$DIMTAD
 70
     1
  9
$DIMZIN
 70
     8
  9
$DIMBLK
  1

  9
$DIMASO
 70
     1
  9
$DIMSHO
 70
     1
  9
$DIMPOST
  1

  9
$DIMAPOST
  1

  9
$DIMALT
 70
     0
  9
$DIMALTD
 70
     3
  9
$DIMALTF
 40
0.03937007874016
  9
$DIMLFAC
 40
1.0
  9
$DIMTOFL
 70
     1
  9
$DIMTVP
 40
0.0
  9
$DIMTIX
 70
     0
  9
$DIMSOXD
 70
     0
  9
$DIMSAH
 70
     0
  9
$DIMBLK1
  1

  9
$DIMBLK2
  1

  9
$DIMSTYLE
  2
ISO-25
  9
$DIMCLRD
 70
     0
  9
$DIMCLRE
 70
     0
  9
$DIMCLRT
 70
     0
  9
$DIMTFAC
 40
1.0
  9
$DIMGAP
 40
0.625
  9
$DIMJUST
 70
     0
  9
$DIMSD1
 70
     0
  9
$DIMSD2
 70
     0
  9
$DIMTOLJ
 70
     0
  9
$DIMTZIN
 70
     8
  9
$DIMALTZ
 70
     0
  9
$DIMALTTZ
 70
     0
  9
$DIMFIT
 70
     3
  9
$DIMUPT
 70
     0
  9
$DIMUNIT
 70
     2
  9
$DIMDEC
 70
     2
  9
$DIMTDEC
 70
     2
  9
$DIMALTU
 70
     2
  9
$DIMALTTD
 70
     3
  9
$DIMTXSTY
  7
STANDARD
  9
$DIMAUNIT
 70
     0
  9
$LUNITS
 70
     2
  9
$LUPREC
 70
     4
  9
$SKETCHINC
 40
1.0
  9
$FILLETRAD
 40
10.0
  9
$AUNITS
 70
     0
  9
$AUPREC
 70
     0
  9
$MENU
  1
.
  9
$ELEVATION
 40
0.0
  9
$PELEVATION
 40
0.0
  9
$THICKNESS
 40
0.0
  9
$LIMCHECK
 70
     0
  9
$BLIPMODE
 70
     0
  9
$CHAMFERA
 40
10.0
  9
$CHAMFERB
 40
10.0
  9
$CHAMFERC
 40
20.0
  9
$CHAMFERD
 40
0.0
  9
$SKPOLY
 70
     0
  9
$TDCREATE
 40
2452626.550806597
  9
$TDUPDATE
 40
2452772.616421643
  9
$TDINDWG
 40
0.0190600694
  9
$TDUSRTIMER
 40
0.0190600694
  9
$USRTIMER
 70
     1
  9
$ANGBASE
 50
0.0
  9
$ANGDIR
 70
     0
  9
$PDMODE
 70
     0
  9
$PDSIZE
 40
0.0
  9
$PLINEWID
 40
0.0
  9
$COORDS
 70
     2
  9
$SPLFRAME
 70
     0
  9
$SPLINETYPE
 70
     6
  9
$SPLINESEGS
 70
     8
  9
$ATTDIA
 70
     0
  9
$ATTREQ
 70
     1
  9
$HANDLING
 70
-16383
  9
$HANDSEED
  5
8FA
  9
$SURFTAB1
 70
     6
  9
$SURFTAB2
 70
     6
  9
$SURFTYPE
 70
     6
  9
$SURFU
 70
     6
  9
$SURFV
 70
     6
  9
$UCSNAME
  2

  9
$UCSORG
 10
0.0
 20
0.0
 30
0.0
  9
$UCSXDIR
 10
1.0
 20
0.0
 30
0.0
  9
$UCSYDIR
 10
0.0
 20
1.0
 30
0.0
  9
$PUCSNAME
  2

  9
$PUCSORG
 10
0.0
 20
0.0
 30
0.0
  9
$PUCSXDIR
 10
1.0
 20
0.0
 30
0.0
  9
$PUCSYDIR
 10
0.0
 20
1.0
 30
0.0
  9
$USERI1
 70
     0
  9
$USERI2
 70
     0
  9
$USERI3
 70
     0
  9
$USERI4
 70
     0
  9
$USERI5
 70
     0
  9
$USERR1
 40
0.0
  9
$USERR2
 40
0.0
  9
$USERR3
 40
0.0
  9
$USERR4
 40
0.0
  9
$USERR5
 40
0.0
  9
$WORLDVIEW
 70
     1
  9
$SHADEDGE
 70
     3
  9
$SHADEDIF
 70
    70
  9
$TILEMODE
 70
     1
  9
$MAXACTVP
 70
    64
  9
$PINSBASE
 10
0.0
 20
0.0
 30
0.0
  9
$PLIMCHECK
 70
     0
  9
$PEXTMIN
 10
0.0
 20
0.0
 30
0.0
  9
$PEXTMAX
 10
0.0
 20
0.0
 30
0.0
  9
$PLIMMIN
 10
0.0
 20
0.0
  9
$PLIMMAX
 10
12.0
 20
9.0
  9
$UNITMODE
 70
     0
  9
$VISRETAIN
 70
     1
  9
$PLINEGEN
 70
     0
  9
$PSLTSCALE
 70
     1
  9
$TREEDEPTH
 70
  3020
  9
$PICKSTYLE
 70
     1
  9
$CMLSTYLE
  2
STANDARD
  9
$CMLJUST
 70
     0
  9
$CMLSCALE
 40
20.0
  9
$SAVEIMAGES
 70
     1
  0
ENDSEC
  0
SECTION
  2
CLASSES
  0
CLASS
  1
ACDBDICTIONARYWDFLT
  2
AcDbDictionaryWithDefault
  3
AutoCAD 2000
 90
    32768
280
     0
281
     0
  0
CLASS
  1
ACDBPLACEHOLDER
  2
AcDbPlaceHolder
  3
AutoCAD 2000
 90
    32768
280
     0
281
     0
  0
CLASS
  1
LAYOUT
  2
AcDbLayout
  3
AutoCAD 2000
 90
    32768
280
     0
281
     0
  0
CLASS
  1
LONG_TRANSACTION
  2
AcDbLongTransaction
  3
AutoCAD 2000
 90
    32768
280
     0
281
     0
  0
CLASS
  1
LWPOLYLINE
  2
AcDbPolyline
  3
AutoCAD 2000
 90
    32768
280
     0
281
     1
  0
CLASS
  1
HATCH
  2
AcDbHatch
  3
AutoCAD 2000
 90
    32768
280
     0
281
     1
  0
CLASS
  1
XRECORD
  2
AcDbXrecord
  3
AutoCAD 2000
 90
    32768
280
     0
281
     0
  0
CLASS
  1
LONG_TRANSACTION
  2
AcDbLongTransaction
  3
AutoCAD 2000
 90
    32768
280
     0
281
     0
  0
CLASS
  1
LWPOLYLINE
  2
AcDbPolyline
  3
AutoCAD 2000
 90
    32768
280
     0
281
     1
  0
CLASS
  1
HATCH
  2
AcDbHatch
  3
AutoCAD 2000
 90
    32768
280
     0
281
     1
  0
CLASS
  1
XRECORD
  2
AcDbXrecord
  3
AutoCAD 2000
 90
    32768
280
     0
281
     0
  0
CLASS
  1
LONG_TRANSACTION
  2
AcDbLongTransaction
  3
AutoCAD 2000
 90
    32768
280
     0
281
     0
  0
CLASS
  1
LWPOLYLINE
  2
AcDbPolyline
  3
AutoCAD 2000
 90
    32768
280
     0
281
     1
  0
CLASS
  1
HATCH
  2
AcDbHatch
  3
AutoCAD 2000
 90
    32768
280
     0
281
     1
  0
CLASS
  1
XRECORD
  2
AcDbXrecord
  3
AutoCAD 2000
 90
    32768
280
     0
281
     0
  0
CLASS
  1
DICTIONARYVAR
  2
AcDbDictionaryVar
  3
AutoCAD 2000
 90
    32768
280
     0
281
     0
  0
CLASS
  1
SORTENTSTABLE
  2
AcDbSortentsTable
  3
AutoCAD 2000
 90
    32768
280
     0
281
     0
  0
CLASS
  1
LONG_TRANSACTION
  2
AcDbLongTransaction
  3
AutoCAD 2000
 90
    32768
280
     0
281
     0
  0
CLASS
  1
LWPOLYLINE
  2
AcDbPolyline
  3
AutoCAD 2000
 90
    32768
280
     0
281
     1
  0
CLASS
  1
HATCH
  2
AcDbHatch
  3
AutoCAD 2000
 90
    32768
280
     0
281
     1
  0
CLASS
  1
XRECORD
  2
AcDbXrecord
  3
AutoCAD 2000
 90
    32768
280
     0
281
     0
  0
ENDSEC
  0
SECTION
  2
TABLES
  0
TABLE
  2
VPORT
  5
8
330
0
100
AcDbSymbolTable
 70
     2
  0
VPORT
  5
6E9
330
8
100
AcDbSymbolTableRecord
100
AcDbViewportTableRecord
  2
*ACTIVE
 70
     0
 10
0.0
 20
0.0
 11
1.0
 21
1.0
 12
4310.822102092003
 22
3780.945009070339
 13
0.0
 23
0.0
 14
10.0
 24
10.0
 15
10.0
 25
10.0
 16
0.0
 26
0.0
 36
1.0
 17
0.0
 27
0.0
 37
0.0
 40
8250.158193870507
 41
1.985355648535564
 42
50.0
 43
0.0
 44
0.0
 50
0.0
 51
0.0
 71
     0
 72
   100
 73
     1
 74
     3
 75
     0
 76
     0
 77
     0
 78
     0
  0
ENDTAB
  0
TABLE
  2
LTYPE
  5
5
330
0
100
AcDbSymbolTable
 70
     1
  0
LTYPE
  5
14
330
5
100
AcDbSymbolTableRecord
100
AcDbLinetypeTableRecord
  2
BYBLOCK
 70
     0
  3

 72
    65
 73
     0
 40
0.0
  0
LTYPE
  5
15
330
5
100
AcDbSymbolTableRecord
100
AcDbLinetypeTableRecord
  2
BYLAYER
 70
     0
  3

 72
    65
 73
     0
 40
0.0
  0
LTYPE
  5
16
330
5
100
AcDbSymbolTableRecord
100
AcDbLinetypeTableRecord
  2
CONTINUOUS
 70
     0
  3
Solid line
 72
    65
 73
     0
 40
0.0
  0
ENDTAB
  0
TABLE
  2
LAYER
  5
2
330
0
100
AcDbSymbolTable
 70
     5
  0
LAYER
  5
10
330
2
100
AcDbSymbolTableRecord
100
AcDbLayerTableRecord
  2
0
 70
     0
 62
     7
  6
CONTINUOUS
  0
LAYER
  5
5D
330
2
100
AcDbSymbolTableRecord
100
AcDbLayerTableRecord
  2
SAFETY
 70
     0
 62
     7
  6
CONTINUOUS
  0
LAYER
  5
5E
330
2
100
AcDbSymbolTableRecord
100
AcDbLayerTableRecord
  2
OBJECT
 70
     0
 62
     7
  6
CONTINUOUS
  0
LAYER
  5
2CB
330
2
100
AcDbSymbolTableRecord
100
AcDbLayerTableRecord
  2
TEKST
 70
     0
 62
     7
  6
CONTINUOUS
  0
LAYER
  5
3C4
330
2
100
AcDbSymbolTableRecord
100
AcDbLayerTableRecord
  2
HATCH
 70
     0
 62
     7
  6
CONTINUOUS
  0
ENDTAB
  0
TABLE
  2
STYLE
  5
3
330
0
100
AcDbSymbolTable
 70
     1
  0
STYLE
  5
11
330
3
100
AcDbSymbolTableRecord
100
AcDbTextStyleTableRecord
  2
STANDARD
 70
     0
 40
0.0
 41
1.0
 50
0.0
 71
     0
 42
2.5
  3
txt
  4

  0
ENDTAB
  0
TABLE
  2
VIEW
  5
6
330
0
100
AcDbSymbolTable
 70
     0
  0
ENDTAB
  0
TABLE
  2
UCS
  5
7
330
0
100
AcDbSymbolTable
 70
     0
  0
ENDTAB
  0
TABLE
  2
APPID
  5
9
330
0
100
AcDbSymbolTable
 70
     2
  0
APPID
  5
12
330
9
100
AcDbSymbolTableRecord
100
AcDbRegAppTableRecord
  2
ACAD
 70
     0
  0
APPID
  5
2C4
330
9
100
AcDbSymbolTableRecord
100
AcDbRegAppTableRecord
  2
CONTENTBLOCKICON
 70
     0
  0
ENDTAB
  0
TABLE
  2
DIMSTYLE
  5
A
330
0
100
AcDbSymbolTable
 70
     2
  0
DIMSTYLE
105
27
330
A
100
AcDbSymbolTableRecord
100
AcDbDimStyleTableRecord
  2
ISO-25
 70
     0
  3

  4

  5

  6

  7

 40
1.0
 41
2.5
 42
0.625
 43
3.75
 44
1.25
 45
0.0
 46
0.0
 47
0.0
 48
0.0
140
2.5
141
2.5
142
0.0
143
0.03937007874016
144
1.0
145
0.0
146
1.0
147
0.625
 71
     0
 72
     0
 73
     0
 74
     0
 75
     0
 76
     0
 77
     1
 78
     8
170
     0
171
     3
172
     1
173
     0
174
     0
175
     0
176
     0
177
     0
178
     0
270
     2
271
     2
272
     2
273
     2
274
     3
340
11
275
     0
280
     0
281
     0
282
     0
283
     0
284
     8
285
     0
286
     0
287
     3
288
     0
  0
DIMSTYLE
105
5F
330
A
100
AcDbSymbolTableRecord
100
AcDbDimStyleTableRecord
  2
STANDARD
 70
     0
  3

  4

  5

  6

  7

 40
5.0
 41
2.5
 42
0.625
 43
3.75
 44
1.25
 45
0.0
 46
0.0
 47
0.0
 48
0.0
140
2.5
141
2.5
142
0.0
143
0.0394
144
1.0
145
0.0
146
1.0
147
0.625
 71
     0
 72
     0
 73
     0
 74
     0
 75
     0
 76
     0
 77
     1
 78
     8
170
     0
171
     4
172
     1
173
     0
174
     0
175
     0
176
     1
177
     1
178
     2
270
     2
271
     0
272
     4
273
     8
274
     4
340
11
275
     0
280
     0
281
     0
282
     0
283
     1
284
     0
285
     0
286
     0
287
     3
288
     0
  0
ENDTAB
  0
TABLE
  2
BLOCK_RECORD
  5
1
330
0
100
AcDbSymbolTable
 70
    24
  0
BLOCK_RECORD
  5
1F
102
{ACAD_XDICTIONARY
360
1E2
102
}
330
1
100
AcDbSymbolTableRecord
100
AcDbBlockTableRecord
  2
*MODEL_SPACE
  0
BLOCK_RECORD
  5
50
102
{ACAD_XDICTIONARY
360
1E4
102
}
330
1
100
AcDbSymbolTableRecord
100
AcDbBlockTableRecord
  2
*PAPER_SPACE
  0
BLOCK_RECORD
  5
1EE
330
1
100
AcDbSymbolTableRecord
100
AcDbBlockTableRecord
  2
ACKF
1001
ACAD
1000
DesignCenter Data
1002
{
1070
     1
1070
     4
1002
}
  0
BLOCK_RECORD
  5
6EC
330
1
100
AcDbSymbolTableRecord
100
AcDbBlockTableRecord
  2
*U1
  0
BLOCK_RECORD
  5
737
330
1
100
AcDbSymbolTableRecord
100
AcDbBlockTableRecord
  2
*U2
  0
BLOCK_RECORD
  5
742
330
1
100
AcDbSymbolTableRecord
100
AcDbBlockTableRecord
  2
*U3
  0
BLOCK_RECORD
  5
753
330
1
100
AcDbSymbolTableRecord
100
AcDbBlockTableRecord
  2
*U4
  0
BLOCK_RECORD
  5
760
330
1
100
AcDbSymbolTableRecord
100
AcDbBlockTableRecord
  2
*U5
  0
BLOCK_RECORD
  5
768
330
1
100
AcDbSymbolTableRecord
100
AcDbBlockTableRecord
  2
*U6
  0
BLOCK_RECORD
  5
778
330
1
100
AcDbSymbolTableRecord
100
AcDbBlockTableRecord
  2
*U7
  0
BLOCK_RECORD
  5
77F
330
1
100
AcDbSymbolTableRecord
100
AcDbBlockTableRecord
  2
*U8
  0
BLOCK_RECORD
  5
786
330
1
100
AcDbSymbolTableRecord
100
AcDbBlockTableRecord
  2
*U9
  0
BLOCK_RECORD
  5
78D
330
1
100
AcDbSymbolTableRecord
100
AcDbBlockTableRecord
  2
*U10
  0
BLOCK_RECORD
  5
7AE
330
1
100
AcDbSymbolTableRecord
100
AcDbBlockTableRecord
  2
*U11
  0
BLOCK_RECORD
  5
7B9
330
1
100
AcDbSymbolTableRecord
100
AcDbBlockTableRecord
  2
*U12
  0
BLOCK_RECORD
  5
7C2
330
1
100
AcDbSymbolTableRecord
100
AcDbBlockTableRecord
  2
*U13
  0
BLOCK_RECORD
  5
7DA
330
1
100
AcDbSymbolTableRecord
100
AcDbBlockTableRecord
  2
*U14
  0
BLOCK_RECORD
  5
7F1
330
1
100
AcDbSymbolTableRecord
100
AcDbBlockTableRecord
  2
*U15
  0
BLOCK_RECORD
  5
7F7
330
1
100
AcDbSymbolTableRecord
100
AcDbBlockTableRecord
  2
*U16
  0
BLOCK_RECORD
  5
7FE
330
1
100
AcDbSymbolTableRecord
100
AcDbBlockTableRecord
  2
*U17
  0
BLOCK_RECORD
  5
805
330
1
100
AcDbSymbolTableRecord
100
AcDbBlockTableRecord
  2
*U18
  0
BLOCK_RECORD
  5
857
330
1
100
AcDbSymbolTableRecord
100
AcDbBlockTableRecord
  2
*U19
  0
BLOCK_RECORD
  5
866
330
1
100
AcDbSymbolTableRecord
100
AcDbBlockTableRecord
  2
*U20
  0
BLOCK_RECORD
  5
875
330
1
100
AcDbSymbolTableRecord
100
AcDbBlockTableRecord
  2
*U21
  0
BLOCK_RECORD
  5
88F
330
1
100
AcDbSymbolTableRecord
100
AcDbBlockTableRecord
  2
*U22
  0
BLOCK_RECORD
  5
8AC
330
1
100
AcDbSymbolTableRecord
100
AcDbBlockTableRecord
  2
*U23
  0
ENDTAB
  0
ENDSEC
  0
SECTION
  2
BLOCKS
  0
BLOCK
  5
20
330
1F
100
AcDbEntity
  8
0
100
AcDbBlockBegin
  2
*MODEL_SPACE
 70
     0
 10
0.0
 20
0.0
 30
0.0
  3
*MODEL_SPACE
  1

  0
ENDBLK
  5
21
330
1F
100
AcDbEntity
  8
0
100
AcDbBlockEnd
  0
BLOCK
  5
52
330
50
100
AcDbEntity
 67
     1
  8
0
100
AcDbBlockBegin
  2
*PAPER_SPACE
 70
     0
 10
0.0
 20
0.0
 30
0.0
  3
*PAPER_SPACE
  1

  0
ENDBLK
  5
53
330
50
100
AcDbEntity
 67
     1
  8
0
100
AcDbBlockEnd
  0
BLOCK
  5
1EF
330
1EE
100
AcDbEntity
  8
0
100
AcDbBlockBegin
  2
ACKF
 70
     0
 10
0.0
 20
0.0
 30
0.0
  3
ACKF
  1

  0
INSERT
  5
623
330
1EE
100
AcDbEntity
  8
HATCH
  6
CONTINUOUS
 62
   251
100
AcDbBlockReference
  2
*U1
 10
0.0
 20
0.0
 30
0.0
1001
ACAD
1002
{
1000
R14_HATCH_DATA
1000
623
1011
1.0
1021
0.0
1031
0.0
1011
0.0
1021
1.0
1031
0.0
1011
0.0
1021
0.0
1031
1.0
1040
0.0
1010
0.0
1020
0.0
1030
1.0
1000
SOLID
1070
     1
1070
     0
1071
       17
1071
        7
1070
     0
1070
     1
1071
        4
1040
5316.826803324388
1040
3619.879161282769
1040
4416.826803324386
1040
3619.879161282769
1040
4416.826803324386
1040
2967.806616229696
1040
5316.826803324388
1040
2967.806616229696
1071
        0
1071
        5
1071
       15
1070
     1
1040
4416.826803324386
1040
3619.879161282769
1040
4116.826803324392
1040
3619.879161282769
1070
     3
1040
4116.826803324387
1040
3694.620093151135
1040
-100.0
1040
0.0
1040
0.7474093186836601
1040
4.712388980384692
1040
6.283185307179586
1070
     0
1070
     1
1040
4016.826803324387
1040
3694.620093151137
1040
4016.826803324387
1040
3767.806616229694
1070
     1
1040
4016.826803324387
1040
3767.806616229694
1040
3616.826803324387
1040
3767.806616229695
1070
     1
1040
3616.826803324387
1040
3767.806616229695
1040
3616.826803324387
1040
3392.806616229695
1070
     1
1040
3616.826803324387
1040
3392.806616229695
1040
3766.826803324387
1040
3392.806616229694
1070
     1
1040
3766.826803324387
1040
3392.806616229694
1040
3766.826803324387
1040
3367.806616229696
1070
     1
1040
3766.826803324387
1040
3367.806616229696
1040
3816.826803324387
1040
3367.806616229696
1070
     1
1040
3816.826803324387
1040
3367.806616229696
1040
3816.826803324387
1040
3267.806616229695
1070
     1
1040
3816.826803324387
1040
3267.806616229695
1040
3766.826803324387
1040
3267.806616229695
1070
     1
1040
3766.826803324387
1040
3267.806616229695
1040
3766.826803324387
1040
3242.806616229696
1070
     1
1040
3766.826803324387
1040
3242.806616229696
1040
3616.826803324387
1040
3242.806616229696
1070
     1
1040
3616.826803324387
1040
3242.806616229696
1040
3616.826803324387
1040
2967.806616229696
1070
     1
1040
3616.826803324387
1040
2967.806616229696
1040
4416.826803324386
1040
2967.806616229696
1070
     1
1040
4416.826803324386
1040
2967.806616229696
1040
4416.826803324386
1040
3619.879161282769
1071
        0
1071
        7
1070
     0
1070
     1
1071
        4
1040
4416.826803324386
1040
2967.806616229696
1040
3616.826803324387
1040
2967.806616229696
1040
3616.826803324387
1040
2867.806616229696
1040
4416.826803324386
1040
2867.806616229696
1071
        0
1071
        7
1070
     0
1070
     1
1071
        4
1040
3616.826803324387
1040
2967.806616229695
1040
3516.826803324387
1040
2967.806616229696
1040
3516.826803324387
1040
2867.806616229696
1040
3616.826803324387
1040
2867.806616229696
1071
        0
1071
        7
1070
     0
1070
     1
1071
        4
1040
3616.826803324387
1040
3317.806616229695
1040
3516.826803324387
1040
3317.806616229695
1040
3516.826803324387
1040
2967.806616229696
1040
3616.826803324387
1040
2967.806616229696
1071
        0
1071
        7
1070
     0
1070
     1
1071
        4
1040
3616.826803324387
1040
3767.806616229695
1040
3516.826803324387
1040
3767.806616229695
1040
3516.826803324386
1040
3317.806616229695
1040
3616.826803324387
1040
3317.806616229694
1071
        0
1071
        7
1070
     0
1070
     1
1071
        5
1040
3616.826803324388
1040
4667.806616229696
1040
3516.826803324387
1040
4667.806616229696
1040
3516.826803324387
1040
4217.806616229696
1040
3516.826803324387
1040
3767.806616229695
1040
3616.826803324387
1040
3767.806616229695
1071
        0
1071
        7
1070
     0
1070
     1
1071
        5
1040
4016.826803324387
1040
4217.806616229696
1040
4016.826803324387
1040
4667.806616229696
1040
3616.826803324387
1040
4667.806616229696
1040
3616.826803324387
1040
3767.806616229695
1040
4016.826803324387
1040
3767.806616229695
1071
        0
1071
        7
1070
     0
1070
     1
1071
        4
1040
6116.826803324387
1040
3619.879161282769
1040
5316.826803324388
1040
3619.879161282769
1040
5316.826803324387
1040
2967.806616229695
1040
6116.826803324387
1040
2967.806616229696
1071
        0
1071
        7
1070
     0
1070
     1
1071
        4
1040
6216.826803324388
1040
3619.879161282769
1040
6116.826803324387
1040
3619.879161282769
1040
6116.826803324387
1040
2967.806616229696
1040
6216.826803324387
1040
2967.806616229696
1071
        0
1071
        7
1070
     0
1070
     1
1071
        4
1040
6216.826803324388
1040
2967.806616229696
1040
6116.826803324387
1040
2967.806616229696
1040
6116.826803324388
1040
2867.806616229696
1040
6216.826803324387
1040
2867.806616229696
1071
        0
1071
        7
1070
     0
1070
     1
1071
        4
1040
6116.826803324387
1040
2967.806616229696
1040
5316.826803324388
1040
2967.806616229696
1040
5316.826803324389
1040
2867.806616229696
1040
6116.826803324387
1040
2867.806616229695
1071
        0
1071
        7
1070
     0
1070
     1
1071
        4
1040
5316.826803324387
1040
2967.806616229696
1040
4416.826803324386
1040
2967.806616229696
1040
4416.826803324386
1040
2867.806616229696
1040
5316.826803324388
1040
2867.806616229696
1071
        0
1071
        7
1070
     0
1070
     1
1071
        8
1040
5416.826803324386
1040
2867.806616229696
1040
5316.826803324388
1040
2867.806616229696
1040
5316.826803324388
1040
1967.806616229696
1040
6216.826803324387
1040
1967.806616229696
1040
6216.826803324387
1040
2867.806616229696
1040
6116.826803324388
1040
2867.806616229696
1040
6116.826803324388
1040
2067.806616229696
1040
5416.826803324385
1040
2067.806616229695
1071
        0
1071
        7
1070
     0
1070
     1
1071
        4
1040
6116.826803324387
1040
2867.806616229696
1040
5416.826803324386
1040
2867.806616229696
1040
5416.826803324386
1040
2067.806616229696
1040
6116.826803324388
1040
2067.806616229696
1071
        0
1071
       23
1070
     0
1070
     1
1071
        4
1040
5516.826803324388
1040
2717.806616229696
1040
5766.826803324388
1040
2717.806616229696
1040
5766.826803324388
1040
2117.806616229696
1040
5516.826803324388
1040
2117.806616229696
1071
        0
1071
       22
1070
     0
1070
     1
1071
        4
1040
5536.826803324387
1040
2697.806616229696
1040
5746.826803324387
1040
2697.806616229696
1040
5746.826803324387
1040
2137.806616229696
1040
5536.826803324387
1040
2137.806616229696
1071
        0
1070
     0
1070
     1
1040
6.092357366793302
1071
       34
1040
3731.279851625564
1040
4450.655356825438
1040
0.0
1040
3566.615571400435
1040
4316.623499751571
1040
0.0
1040
3578.812950991582
1040
3609.910014795663
1040
0.0
1040
3554.418191809287
1040
3134.706148439356
1040
0.0
1040
3591.010261731652
1040
2927.565996230791
1040
0.0
1040
3719.082472034417
1040
3055.505504046639
1040
0.0
1040
3786.167922083587
1040
2897.104215261199
1040
0.0
1040
4572.897184435809
1040
3305.292170420303
1040
0.0
1040
4792.449535118961
1040
2915.381263035277
1040
0.0
1040
5890.2113573858
1040
3256.553306997179
1040
0.0
1040
6176.849158118122
1040
3165.167929408948
1040
0.0
1040
6189.046468858207
1040
2915.381263035277
1040
0.0
1040
6036.579568224224
1040
2891.011866003173
1040
0.0
1040
5975.592807970627
1040
2629.040466433995
1040
0.0
1040
5975.592807970627
1040
2629.040466433995
1040
0.0
1040
5975.592807970627
1040
2629.040466433995
1040
0.0
1040
6189.046468858207
1040
2470.639177648554
1040
0.0
1040
5066.890025111213
1040
3207.814443574047
1040
0.0
1040
4152.088552456225
1040
3207.814443574047
1040
0.0
1040
4048.411032484692
1040
2921.473646972765
1040
0.0
1040
3578.812950991582
1040
2945.843078684331
1040
0.0
1040
3578.812950991582
1040
3037.228421593099
1040
0.0
1040
3578.812950991582
1040
3372.308081617513
1040
0.0
1040
3572.714261196008
1040
3902.34319533444
1040
0.0
1040
3889.845442055121
1040
4127.760395317077
1040
0.0
1040
5603.573556653479
1040
3055.505504046639
1040
0.0
1040
6121.961018809037
1040
3226.091526027587
1040
0.0
1040
6176.849158118122
1040
2915.381263035277
1040
0.0
1040
5939.00073804825
1040
2891.011866003173
1040
0.0
1040
4658.2787038717
1040
2927.565996230791
1040
0.0
1040
5365.725136583606
1040
2683.871713794607
1040
0.0
1040
5499.896036681945
1040
2769.164707445357
1040
0.0
1040
5499.896036681945
1040
2769.164707445357
1040
0.0
1040
5499.896036681945
1040
2769.164707445357
1040
0.0
1002
}
  0
INSERT
  5
624
330
1EE
100
AcDbEntity
  8
HATCH
  6
CONTINUOUS
 62
     3
100
AcDbBlockReference
  2
*U2
 10
0.0
 20
0.0
 30
0.0
1001
ACAD
1002
{
1000
R14_HATCH_DATA
1000
624
1011
1.0
1021
0.0
1031
0.0
1011
0.0
1021
1.0
1031
0.0
1011
0.0
1021
0.0
1031
1.0
1040
0.0
1010
0.0
1020
0.0
1030
1.0
1000
SOLID
1070
     1
1070
     1
1071
        2
1071
        7
1070
     0
1070
     1
1071
        4
1040
5766.826803324388
1040
2717.806616229696
1040
5516.826803324388
1040
2717.806616229696
1040
5516.826803324388
1040
2117.806616229696
1040
5766.826803324388
1040
2117.806616229696
1071
        4
1005
694
1005
69A
1005
693
1005
6A2
1071
       22
1070
     0
1070
     1
1071
        4
1040
5536.826803324387
1040
2697.806616229695
1040
5536.826803324387
1040
2137.806616229696
1040
5746.826803324387
1040
2137.806616229696
1040
5746.826803324387
1040
2697.806616229696
1071
        4
1005
6A3
1005
696
1005
69B
1005
695
1070
     0
1070
     1
1040
3.106775867574462
1071
        2
1040
5562.327154614999
1040
2707.225349369444
1040
0.0
1040
5562.327154614999
1040
2707.225349369444
1040
0.0
1002
}
  0
INSERT
  5
625
330
1EE
100
AcDbEntity
  8
HATCH
  6
CONTINUOUS
 62
     1
100
AcDbBlockReference
  2
*U3
 10
0.0
 20
0.0
 30
0.0
1001
ACAD
1002
{
1000
R14_HATCH_DATA
1000
625
1011
1.0
1021
0.0
1031
0.0
1011
0.0
1021
1.0
1031
0.0
1011
0.0
1021
0.0
1031
1.0
1040
0.0
1010
0.0
1020
0.0
1030
1.0
1000
SOLID
1070
     1
1070
     0
1071
        3
1071
        7
1070
     0
1070
     1
1071
        8
1040
2066.826803324385
1040
3667.806616229694
1040
1616.826803324387
1040
3667.806616229695
1040
1616.826803324386
1040
2967.806616229696
1040
1741.826803324387
1040
2967.806616229696
1040
1741.826803324386
1040
2987.806616229695
1040
1636.826803324386
1040
2987.806616229697
1040
1636.826803324385
1040
3647.806616229696
1040
2066.826803324385
1040
3647.806616229696
1071
        0
1071
        7
1070
     0
1070
     1
1071
        8
1040
2316.826803324385
1040
3667.806616229694
1040
2066.826803324384
1040
3667.806616229694
1040
2066.826803324384
1040
3647.806616229696
1040
2296.826803324385
1040
3647.806616229696
1040
2296.826803324385
1040
2987.806616229695
1040
2066.826803324384
1040
2987.806616229694
1040
2066.826803324385
1040
2967.806616229695
1040
2316.826803324385
1040
2967.806616229696
1071
        0
1071
        7
1070
     0
1070
     1
1071
        4
1040
2066.826803324384
1040
2987.806616229696
1040
1741.826803324386
1040
2987.806616229696
1040
1741.826803324386
1040
2967.806616229696
1040
2066.826803324384
1040
2967.806616229696
1071
        0
1070
     0
1070
     1
1040
2.015388855701678
1071
        5
1040
2026.934209603037
1040
3353.068990873609
1040
0.0
1040
2200.437452082631
1040
3659.408115691789
1040
0.0
1040
1924.042762261225
1040
3657.392718727322
1040
0.0
1040
2119.738218295977
1040
3657.392718727322
1040
0.0
1040
1926.060236220793
1040
2976.1912497347
1040
0.0
1002
}
  0
INSERT
  5
626
330
1EE
100
AcDbEntity
  8
HATCH
  6
CONTINUOUS
 62
     1
100
AcDbBlockReference
  2
*U4
 10
0.0
 20
0.0
 30
0.0
1001
ACAD
1002
{
1000
R14_HATCH_DATA
1000
626
1011
1.0
1021
0.0
1031
0.0
1011
0.0
1021
1.0
1031
0.0
1011
0.0
1021
0.0
1031
1.0
1040
0.0
1010
0.0
1020
0.0
1030
1.0
1000
SOLID
1070
     1
1070
     1
1071
        1
1071
        7
1070
     0
1070
     1
1071
       12
1040
1741.826803324386
1040
3627.806616229696
1040
1741.826803324387
1040
3647.806616229696
1040
1636.826803324386
1040
3647.806616229695
1040
1636.826803324386
1040
2987.806616229696
1040
1741.826803324386
1040
2987.806616229695
1040
1741.826803324386
1040
3007.806616229696
1040
2066.826803324384
1040
3007.806616229696
1040
2066.826803324384
1040
2987.806616229695
1040
2296.826803324385
1040
2987.806616229696
1040
2296.826803324385
1040
3647.806616229696
1040
2066.826803324385
1040
3647.806616229696
1040
2066.826803324384
1040
3627.806616229696
1071
       10
1005
653
1005
672
1005
666
1005
669
1005
656
1005
654
1005
660
1005
657
1005
664
1005
674
1070
     0
1070
     1
1040
2.015388855701678
1071
        1
1040
2002.724453237264
1040
3391.361394480678
1040
0.0
1002
}
  0
INSERT
  5
627
330
1EE
100
AcDbEntity
  8
HATCH
  6
CONTINUOUS
 62
     2
100
AcDbBlockReference
  2
*U5
 10
0.0
 20
0.0
 30
0.0
1001
ACAD
1002
{
1000
R14_HATCH_DATA
1000
627
1011
1.0
1021
0.0
1031
0.0
1011
0.0
1021
1.0
1031
0.0
1011
0.0
1021
0.0
1031
1.0
1040
0.0
1010
0.0
1020
0.0
1030
1.0
1000
SOLID
1070
     1
1070
     0
1071
        2
1071
        7
1070
     0
1070
     1
1071
        5
1040
2066.826803324385
1040
3627.806616229696
1040
2066.826803324385
1040
3647.806616229696
1040
1744.956199221235
1040
3647.806616229696
1040
1741.826803324387
1040
3647.806616229696
1040
1741.826803324386
1040
3627.806616229696
1071
        0
1071
        7
1070
     0
1070
     1
1071
        4
1040
1741.826803324386
1040
3007.806616229696
1040
1741.826803324386
1040
2987.806616229695
1040
2066.826803324385
1040
2987.806616229696
1040
2066.826803324384
1040
3007.806616229696
1071
        0
1070
     0
1070
     1
1040
2.015388855701678
1071
        2
1040
1926.060236220793
1040
3635.223421477079
1040
0.0
1040
1889.745636097643
1040
2998.360546984935
1040
0.0
1002
}
  0
INSERT
  5
628
330
1EE
100
AcDbEntity
  8
HATCH
  6
CONTINUOUS
 62
     2
100
AcDbBlockReference
  2
*U6
 10
0.0
 20
0.0
 30
0.0
1001
ACAD
1002
{
1000
R14_HATCH_DATA
1000
628
1011
1.0
1021
0.0
1031
0.0
1011
0.0
1021
1.0
1031
0.0
1011
0.0
1021
0.0
1031
1.0
1040
0.0
1010
0.0
1020
0.0
1030
1.0
1000
SOLID
1070
     1
1070
     0
1071
        2
1071
        7
1070
     1
1070
     1
1071
        6
1040
1816.826803324387
1040
3747.806616229696
1040
0.0
1040
1786.826803324387
1040
3747.806616229696
1040
0.0
1040
1786.826803324387
1040
3682.806616229696
1040
-0.4142135623730951
1040
1776.826803324387
1040
3672.806616229696
1040
0.0
1040
1826.826803324387
1040
3672.806616229696
1040
-0.4142135623730951
1040
1816.826803324387
1040
3682.806616229696
1040
0.0
1071
        0
1071
        7
1070
     1
1070
     1
1071
        7
1040
1816.826803324387
1040
2952.806616229695
1040
-0.4142135623731217
1040
1826.826803324387
1040
2962.806616229696
1040
0.0
1040
1776.826803324387
1040
2962.806616229696
1040
-0.4142135623730951
1040
1786.826803324387
1040
2952.806616229695
1040
0.0
1040
1786.826803324387
1040
2887.806616229696
1040
0.0
1040
1801.826803324387
1040
2887.806616229696
1040
0.0
1040
1816.826803324387
1040
2887.806616229696
1040
0.0
1071
        0
1070
     0
1070
     1
1040
2.015388855701678
1071
        2
1040
1809.046402310988
1040
3715.838987940697
1040
0.0
1040
1809.046402310988
1040
2927.821930664205
1040
0.0
1002
}
  0
INSERT
  5
629
330
1EE
100
AcDbEntity
  8
HATCH
  6
CONTINUOUS
 62
     1
100
AcDbBlockReference
  2
*U7
 10
0.0
 20
0.0
 30
0.0
1001
ACAD
1002
{
1000
R14_HATCH_DATA
1000
629
1011
1.0
1021
0.0
1031
0.0
1011
0.0
1021
1.0
1031
0.0
1011
0.0
1021
0.0
1031
1.0
1040
0.0
1010
0.0
1020
0.0
1030
1.0
1000
SOLID
1070
     1
1070
     0
1071
        1
1071
        7
1070
     0
1070
     1
1071
        4
1040
3766.826803324387
1040
3392.806616229695
1040
3616.826803324387
1040
3392.806616229695
1040
3616.826803324387
1040
3242.806616229696
1040
3766.826803324387
1040
3242.806616229696
1071
        0
1070
     0
1070
     1
1040
1.492092490577494
1071
        1
1040
3677.026588003493
1040
3329.710326776716
1040
0.0
1002
}
  0
INSERT
  5
62A
330
1EE
100
AcDbEntity
  8
HATCH
  6
CONTINUOUS
 62
     1
100
AcDbBlockReference
  2
*U8
 10
0.0
 20
0.0
 30
0.0
1001
ACAD
1002
{
1000
R14_HATCH_DATA
1000
62A
1011
1.0
1021
0.0
1031
0.0
1011
0.0
1021
1.0
1031
0.0
1011
0.0
1021
0.0
1031
1.0
1040
0.0
1010
0.0
1020
0.0
1030
1.0
1000
SOLID
1070
     1
1070
     1
1071
        1
1071
        7
1070
     0
1070
     1
1071
        4
1040
3766.826803324387
1040
3267.806616229695
1040
3816.826803324387
1040
3267.806616229695
1040
3816.826803324387
1040
3367.806616229696
1040
3766.826803324387
1040
3367.806616229696
1071
        1
1005
67A
1070
     0
1070
     1
1040
1.492092490577494
1071
        1
1040
3811.454233729957
1040
3317.773586417693
1040
0.0
1002
}
  0
INSERT
  5
62B
330
1EE
100
AcDbEntity
  8
HATCH
  6
CONTINUOUS
 62
    32
100
AcDbBlockReference
  2
*U9
 10
0.0
 20
0.0
 30
0.0
1001
ACAD
1002
{
1000
R14_HATCH_DATA
1000
62B
1011
1.0
1021
0.0
1031
0.0
1011
0.0
1021
1.0
1031
0.0
1011
0.0
1021
0.0
1031
1.0
1040
0.0
1010
0.0
1020
0.0
1030
1.0
1000
SOLID
1070
     1
1070
     1
1071
        2
1071
        7
1070
     0
1070
     1
1071
        4
1040
5763.826803324389
1040
5815.734071176624
1040
5763.82680332439
1040
5915.734071176625
1040
5613.826803324386
1040
5915.734071176625
1040
5613.826803324385
1040
5815.734071176624
1071
        4
1005
6A9
1005
6AB
1005
6AA
1005
6D6
1071
        7
1070
     0
1070
     1
1071
        4
1040
6113.826803324385
1040
5915.734071176625
1040
5963.826803324387
1040
5915.734071176625
1040
5963.826803324387
1040
5815.734071176624
1040
6113.826803324386
1040
5815.734071176624
1071
        4
1005
6D2
1005
6D3
1005
6D1
1005
6E0
1070
     0
1070
     1
1040
3.307584290720372
1071
        2
1040
5684.598662539334
1040
5831.714597186903
1040
0.0
1040
6035.566218222964
1040
5825.0994203519
1040
0.0
1002
}
  0
INSERT
  5
62C
330
1EE
100
AcDbEntity
  8
HATCH
  6
CONTINUOUS
 62
     1
100
AcDbBlockReference
  2
*U10
 10
0.0
 20
0.0
 30
0.0
1001
ACAD
1002
{
1000
R14_HATCH_DATA
1000
62C
1011
1.0
1021
0.0
1031
0.0
1011
0.0
1021
1.0
1031
0.0
1011
0.0
1021
0.0
1031
1.0
1040
0.0
1010
0.0
1020
0.0
1030
1.0
1000
SOLID
1070
     1
1070
     0
1071
        5
1071
        7
1070
     0
1070
     1
1071
        8
1040
5763.826803324389
1040
4815.734071176623
1040
5783.826803324388
1040
4815.734071176624
1040
5783.826803324387
1040
5815.734071176624
1040
5783.826803324387
1040
5915.734071176625
1040
5783.826803324388
1040
6115.734071176625
1040
5763.82680332439
1040
6115.734071176624
1040
5763.826803324389
1040
5915.734071176625
1040
5763.826803324389
1040
5815.734071176624
1071
        0
1071
        7
1070
     0
1070
     1
1071
        8
1040
5783.826803324387
1040
4815.734071176624
1040
5813.826803324388
1040
4815.734071176624
1040
5813.826803324388
1040
5815.734071176624
1040
5813.826803324388
1040
5915.734071176625
1040
5813.826803324389
1040
6115.734071176625
1040
5783.826803324387
1040
6115.734071176624
1040
5783.826803324387
1040
5915.734071176625
1040
5783.826803324387
1040
5815.734071176624
1071
        0
1071
        7
1070
     0
1070
     1
1071
        8
1040
5813.826803324388
1040
4815.734071176624
1040
5913.826803324386
1040
4815.734071176624
1040
5913.826803324386
1040
5815.734071176624
1040
5913.826803324386
1040
5915.734071176625
1040
5913.826803324386
1040
6115.734071176625
1040
5813.826803324388
1040
6115.734071176625
1040
5813.826803324388
1040
5915.734071176625
1040
5813.826803324388
1040
5815.734071176624
1071
        0
1071
        7
1070
     0
1070
     1
1071
        8
1040
5913.826803324386
1040
4815.734071176624
1040
5943.826803324387
1040
4815.734071176624
1040
5943.826803324387
1040
5815.734071176624
1040
5943.826803324387
1040
5915.734071176625
1040
5943.826803324388
1040
6115.734071176625
1040
5913.826803324386
1040
6115.734071176625
1040
5913.826803324386
1040
5915.734071176625
1040
5913.826803324386
1040
5815.734071176624
1071
        0
1071
        7
1070
     0
1070
     1
1071
        8
1040
5943.826803324387
1040
4815.734071176624
1040
5963.826803324387
1040
4815.734071176624
1040
5963.826803324387
1040
5815.734071176624
1040
5963.826803324387
1040
5915.734071176625
1040
5963.826803324387
1040
6115.734071176625
1040
5943.826803324388
1040
6115.734071176625
1040
5943.826803324387
1040
5915.734071176625
1040
5943.826803324387
1040
5815.734071176624
1071
        0
1070
     0
1070
     1
1040
3.307584290720372
1071
        5
1040
5770.685010346111
1040
5686.180880214044
1040
0.0
1040
5793.86213841194
1040
5676.258114961529
1040
0.0
1040
5843.527373495228
1040
5679.565703379034
1040
0.0
1040
5926.302742350359
1040
5676.258114961529
1040
0.0
1040
5949.479870416188
1040
5679.565703379034
1040
0.0
1002
}
  0
INSERT
  5
62D
330
1EE
100
AcDbEntity
  8
HATCH
  6
CONTINUOUS
 62
     2
100
AcDbBlockReference
  2
*U11
 10
0.0
 20
0.0
 30
0.0
1001
ACAD
1002
{
1000
R14_HATCH_DATA
1000
62D
1011
1.0
1021
0.0
1031
0.0
1011
0.0
1021
1.0
1031
0.0
1011
0.0
1021
0.0
1031
1.0
1040
0.0
1010
0.0
1020
0.0
1030
1.0
1000
SOLID
1070
     1
1070
     1
1071
        2
1071
        7
1070
     0
1070
     1
1071
        4
1040
2216.826803324384
1040
4867.806616229696
1040
2216.826803324384
1040
4967.806616229696
1040
1716.826803324388
1040
4967.806616229696
1040
1716.826803324388
1040
4867.806616229696
1071
        4
1005
67E
1005
682
1005
67F
1005
687
1071
        7
1070
     0
1070
     1
1071
        8
1040
1716.826803324388
1040
4867.806616229696
1040
1716.826803324388
1040
4767.806616229696
1040
1866.826803324387
1040
4767.806616229696
1040
1866.826803324387
1040
4817.806616229696
1040
2066.826803324386
1040
4817.806616229696
1040
2066.826803324387
1040
4767.806616229696
1040
2216.826803324384
1040
4767.806616229696
1040
2216.826803324384
1040
4867.806616229696
1071
        8
1005
67F
1005
682
1005
681
1005
6E3
1005
680
1005
686
1005
685
1005
687
1070
     0
1070
     1
1040
0.5738570666890971
1071
        2
1040
2004.128739595842
1040
4907.895712428341
1040
0.0
1040
2002.979821844048
1040
4845.345267543322
1040
0.0
1002
}
  0
INSERT
  5
62E
330
1EE
100
AcDbEntity
  8
HATCH
  6
CONTINUOUS
 62
     3
100
AcDbBlockReference
  2
*U12
 10
0.0
 20
0.0
 30
0.0
1001
ACAD
1002
{
1000
R14_HATCH_DATA
1000
62E
1011
1.0
1021
0.0
1031
0.0
1011
0.0
1021
1.0
1031
0.0
1011
0.0
1021
0.0
1031
1.0
1040
0.0
1010
0.0
1020
0.0
1030
1.0
1000
SOLID
1070
     1
1070
     1
1071
        2
1071
        7
1070
     0
1070
     1
1071
        5
1040
1866.826803324387
1040
3667.806616229695
1040
1966.826803324385
1040
3667.806616229695
1040
1966.826803324385
1040
4817.806616229696
1040
1866.826803324387
1040
4817.806616229697
1040
1866.826803324387
1040
4767.806616229696
1071
        5
1005
680
1005
684
1005
645
1005
652
1005
647
1071
        7
1070
     0
1070
     1
1071
        5
1040
2066.826803324387
1040
4767.806616229697
1040
2066.826803324387
1040
4817.806616229697
1040
1966.826803324384
1040
4817.806616229697
1040
1966.826803324385
1040
3667.806616229695
1040
2066.826803324384
1040
3667.806616229695
1071
        5
1005
686
1005
680
1005
647
1005
652
1005
646
1070
     0
1070
     1
1040
3.620318398565272
1071
        2
1040
1885.663869453106
1040
4326.285475445918
1040
0.0
1040
2027.002716414506
1040
4329.905803256442
1040
0.0
1002
}
  0
INSERT
  5
62F
330
1EE
100
AcDbEntity
  8
HATCH
  6
CONTINUOUS
 62
    32
100
AcDbBlockReference
  2
*U13
 10
0.0
 20
0.0
 30
0.0
1001
ACAD
1002
{
1000
R14_HATCH_DATA
1000
62F
1011
1.0
1021
0.0
1031
0.0
1011
0.0
1021
1.0
1031
0.0
1011
0.0
1021
0.0
1031
1.0
1040
0.0
1010
0.0
1020
0.0
1030
1.0
1000
SOLID
1070
     1
1070
     0
1071
        1
1071
        7
1070
     1
1070
     1
1071
        5
1040
1866.493098795344
1040
4967.806616229696
1040
0.0
1040
1890.031884081273
1040
4967.806616229696
1040
3.104875500841603
1040
1866.826803324387
1040
4735.519050676468
1040
0.0
1040
1866.826803324386
1040
4767.806616229696
1040
0.0
1040
1866.493098795344
1040
4767.806616229696
1040
-3.296662954709566
1071
        0
1070
     0
1070
     1
1040
2.043898269883326
1071
        1
1040
1732.513759683199
1040
5053.366798291885
1040
0.0
1002
}
  0
INSERT
  5
630
330
1EE
100
AcDbEntity
  8
HATCH
  6
CONTINUOUS
 62
    32
100
AcDbBlockReference
  2
*U14
 10
0.0
 20
0.0
 30
0.0
1001
ACAD
1002
{
1000
R14_HATCH_DATA
1000
630
1011
1.0
1021
0.0
1031
0.0
1011
0.0
1021
1.0
1031
0.0
1011
0.0
1021
0.0
1031
1.0
1040
0.0
1010
0.0
1020
0.0
1030
1.0
1000
SOLID
1070
     1
1070
     0
1071
        1
1071
        7
1070
     1
1070
     1
1071
        4
1040
1866.826803324386
1040
1974.929768001776
1040
0.0
1040
1866.826803324386
1040
1996.935400977488
1040
4.791287847477953
1040
2066.826803324385
1040
1996.935400977488
1040
0.0
1040
2066.826803324385
1040
1974.929768001776
1040
-4.371231517720829
1071
        0
1070
     0
1070
     1
1040
2.976554703003268
1071
        1
1040
2169.998670851819
1040
1893.126769996131
1040
0.0
1002
}
  0
INSERT
  5
631
330
1EE
100
AcDbEntity
  8
HATCH
  6
CONTINUOUS
 62
    32
100
AcDbBlockReference
  2
*U15
 10
0.0
 20
0.0
 30
0.0
1001
ACAD
1002
{
1000
R14_HATCH_DATA
1000
631
1011
1.0
1021
0.0
1031
0.0
1011
0.0
1021
1.0
1031
0.0
1011
0.0
1021
0.0
1031
1.0
1040
0.0
1010
0.0
1020
0.0
1030
1.0
1000
SOLID
1070
     1
1070
     1
1071
        1
1071
        7
1070
     0
1070
     1
1071
        5
1040
1966.826803324385
1040
2967.806616229696
1040
1866.826803324387
1040
2967.806616229696
1040
1866.826803324386
1040
1996.935400977488
1040
1866.826803324386
1040
1946.935400977484
1040
1966.826803324385
1040
1946.935400977485
1071
        5
1005
651
1005
64A
1005
650
1005
64E
1005
64C
1070
     0
1070
     1
1040
2.959783888686925
1071
        1
1040
1930.303458617003
1040
2504.331038436911
1040
0.0
1002
}
  0
INSERT
  5
632
330
1EE
100
AcDbEntity
  8
HATCH
  6
CONTINUOUS
 62
    32
100
AcDbBlockReference
  2
*U16
 10
0.0
 20
0.0
 30
0.0
1001
ACAD
1002
{
1000
R14_HATCH_DATA
1000
632
1011
1.0
1021
0.0
1031
0.0
1011
0.0
1021
1.0
1031
0.0
1011
0.0
1021
0.0
1031
1.0
1040
0.0
1010
0.0
1020
0.0
1030
1.0
1000
SOLID
1070
     1
1070
     1
1071
        1
1071
        7
1070
     0
1070
     1
1071
        4
1040
2066.826803324385
1040
2967.806616229696
1040
1966.826803324385
1040
2967.806616229696
1040
1966.826803324385
1040
1946.935400977485
1040
2066.826803324385
1040
1946.935400977485
1071
        4
1005
651
1005
64C
1005
64E
1005
64B
1070
     0
1070
     1
1040
2.959783888686925
1071
        1
1040
2025.114820162686
1040
2572.406095099002
1040
0.0
1002
}
  0
INSERT
  5
633
330
1EE
100
AcDbEntity
  8
HATCH
  6
CONTINUOUS
 62
     1
100
AcDbBlockReference
  2
*U17
 10
0.0
 20
0.0
 30
0.0
1001
ACAD
1002
{
1000
R14_HATCH_DATA
1000
633
1011
1.0
1021
0.0
1031
0.0
1011
0.0
1021
1.0
1031
0.0
1011
0.0
1021
0.0
1031
1.0
1040
0.0
1010
0.0
1020
0.0
1030
1.0
1000
SOLID
1070
     1
1070
     1
1071
        2
1071
        7
1070
     0
1070
     1
1071
        4
1040
2316.826803324385
1040
3417.806616229695
1040
2316.826803324385
1040
3317.806616229695
1040
3516.826803324387
1040
3317.806616229694
1040
3516.826803324387
1040
3417.806616229695
1071
        4
1005
648
1005
673
1005
634
1005
677
1071
        7
1070
     0
1070
     1
1071
        4
1040
3516.826803324387
1040
3217.806616229696
1040
3516.826803324387
1040
3317.806616229695
1040
2316.826803324385
1040
3317.806616229695
1040
2316.826803324385
1040
3217.806616229696
1071
        4
1005
634
1005
673
1005
649
1005
677
1070
     0
1070
     1
1040
2.057186585605162
1071
        2
1040
3015.87788469738
1040
3390.824348324066
1040
0.0
1040
2978.810122754446
1040
3265.335984919278
1040
0.0
1002
}
  0
LINE
  5
634
330
1EE
100
AcDbEntity
  8
OBJECT
100
AcDbLine
 10
3516.826803324387
 20
3317.806616229695
 30
0.0
 11
2316.826803324385
 21
3317.806616229695
 31
0.0
  0
INSERT
  5
635
330
1EE
100
AcDbEntity
  8
HATCH
  6
CONTINUOUS
 62
     3
100
AcDbBlockReference
  2
*U18
 10
0.0
 20
0.0
 30
0.0
1001
ACAD
1002
{
1000
R14_HATCH_DATA
1000
635
1011
1.0
1021
0.0
1031
0.0
1011
0.0
1021
1.0
1031
0.0
1011
0.0
1021
0.0
1031
1.0
1040
0.0
1010
0.0
1020
0.0
1030
1.0
1000
SOLID
1070
     1
1070
     0
1071
        2
1071
        5
1071
        8
1070
     1
1040
6313.826803324388
1040
4717.806616229696
1040
6313.826803324388
1040
4740.993139308249
1070
     3
1040
6213.826803324387
1040
4740.99313930826
1040
100.0
1040
0.0
1040
0.7474093186836594
1040
0.0000000000000032
1040
0.2268986454421904
1070
     1
1070
     3
1040
6213.826803324387
1040
4740.99313930826
1040
100.0
1040
0.0
1040
0.7474093186836594
1040
0.2268986454421904
1040
1.570796326794896
1070
     1
1070
     1
1040
6213.826803324415
1040
4815.734071176624
1040
4116.82680332441
1040
4815.734071176624
1070
     3
1040
4116.826803324387
1040
4740.993139308257
1040
100.0
1040
0.0
1040
0.7474093186836594
1040
1.570796326794896
1040
3.141592653589792
1070
     1
1070
     1
1040
4016.826803324387
1040
4740.99313930825
1040
4016.826803324387
1040
4217.806616229696
1070
     1
1040
4016.826803324387
1040
4217.806616229696
1040
6313.826803324388
1040
4217.806616229696
1070
     1
1040
6313.826803324388
1040
4217.806616229696
1040
6313.826803324388
1040
4717.806616229696
1071
        0
1071
        5
1071
        8
1070
     1
1040
6313.826803324388
1040
4217.806616229696
1040
4016.826803324387
1040
4217.806616229696
1070
     1
1040
4016.826803324387
1040
4217.806616229696
1040
4016.826803324387
1040
3694.620093151137
1070
     3
1040
4116.826803324387
1040
3694.620093151135
1040
-100.0
1040
0.0
1040
0.7474093186836601
1040
0.0000000000000002
1040
1.570796326794894
1070
     1
1070
     1
1040
4116.826803324392
1040
3619.879161282769
1040
6213.82680332432
1040
3619.879161282769
1070
     3
1040
6213.826803324387
1040
3694.620093151135
1040
-100.0
1040
0.0
1040
0.7474093186836602
1040
1.570796326794896
1040
1.600800828618373
1070
     1
1070
     3
1040
6213.826803324387
1040
3694.620093151135
1040
-100.0
1040
0.0
1040
0.7474093186836602
1040
1.600800828618373
1040
2.914694008147577
1070
     1
1070
     3
1040
6213.826803324387
1040
3694.620093151135
1040
-100.0
1040
0.0
1040
0.7474093186836602
1040
2.914694008147577
1040
3.141592653589792
1070
     1
1070
     1
1040
6313.826803324388
1040
3694.620093151133
1040
6313.826803324388
1040
4217.806616229696
1071
        0
1070
     0
1070
     1
1040
8.052138030139547
1071
        2
1040
5610.16907574713
1040
4416.80324224077
1040
0.0
1040
5602.108612505042
1040
3788.736466622722
1040
0.0
1002
}
  0
INSERT
  5
636
330
1EE
100
AcDbEntity
  8
HATCH
  6
CONTINUOUS
 62
   251
100
AcDbBlockReference
  2
*U19
 10
0.0
 20
0.0
 30
0.0
1001
ACAD
1002
{
1000
R14_HATCH_DATA
1000
636
1011
1.0
1021
0.0
1031
0.0
1011
0.0
1021
1.0
1031
0.0
1011
0.0
1021
0.0
1031
1.0
1040
0.0
1010
0.0
1020
0.0
1030
1.0
1000
SOLID
1070
     1
1070
     0
1071
        6
1071
        7
1070
     0
1070
     1
1071
        4
1040
6684.326803324388
1040
4251.306616229697
1040
6684.326803324387
1040
4318.306616229697
1040
6313.826803324388
1040
4318.306616229697
1040
6313.826803324389
1040
4251.306616229697
1071
        0
1071
        7
1070
     0
1070
     1
1071
        4
1040
6684.32680332439
1040
4251.306616229697
1040
6696.326803324386
1040
4251.306616229697
1040
6696.326803324385
1040
4318.306616229697
1040
6684.326803324388
1040
4318.306616229697
1071
        0
1071
        7
1070
     0
1070
     1
1071
        4
1040
6696.326803324386
1040
4251.306616229697
1040
6723.826803324389
1040
4251.306616229697
1040
6723.826803324389
1040
4318.306616229697
1040
6696.326803324386
1040
4318.306616229697
1071
        0
1071
        7
1070
     0
1070
     1
1071
        4
1040
6696.326803324386
1040
4117.306616229697
1040
6723.826803324384
1040
4117.306616229697
1040
6723.826803324382
1040
4184.306616229696
1040
6696.326803324386
1040
4184.306616229696
1071
        0
1071
        7
1070
     0
1070
     1
1071
        4
1040
6684.326803324386
1040
4117.306616229697
1040
6696.326803324386
1040
4117.306616229696
1040
6696.326803324386
1040
4184.306616229696
1040
6684.326803324386
1040
4184.306616229696
1071
        0
1071
        7
1070
     0
1070
     1
1071
        4
1040
6684.326803324386
1040
4184.306616229696
1040
6313.826803324388
1040
4184.306616229696
1040
6313.826803324388
1040
4117.306616229697
1040
6684.326803324385
1040
4117.306616229697
1071
        0
1070
     0
1070
     1
1040
1.744224418664365
1071
        6
1040
6522.569849404717
1040
4281.634002834558
1040
0.0
1040
6690.189079715048
1040
4272.912880958436
1040
0.0
1040
6705.903371798654
1040
4274.657119205447
1040
0.0
1040
6704.157377595511
1040
4156.049854754289
1040
0.0
1040
6686.697022457687
1040
4147.328732878166
1040
0.0
1040
6670.982730374082
1040
4147.328732878166
1040
0.0
1002
}
  0
INSERT
  5
637
330
1EE
100
AcDbEntity
  8
HATCH
  6
CONTINUOUS
 62
     5
100
AcDbBlockReference
  2
*U20
 10
0.0
 20
0.0
 30
0.0
1001
ACAD
1002
{
1000
R14_HATCH_DATA
1000
637
1011
1.0
1021
0.0
1031
0.0
1011
0.0
1021
1.0
1031
0.0
1011
0.0
1021
0.0
1031
1.0
1040
0.0
1010
0.0
1020
0.0
1030
1.0
1000
SOLID
1070
     1
1070
     0
1071
        3
1071
        7
1070
     1
1070
     1
1071
        4
1040
6840.326803324386
1040
4192.806616229696
1040
-1.0
1040
6840.326803324386
1040
4242.806616229696
1040
0.0
1040
6540.326803324386
1040
4242.806616229696
1040
-1.0
1040
6540.326803324386
1040
4192.806616229696
1040
0.0
1071
        0
1071
        7
1070
     0
1070
     1
1071
        4
1040
6840.326803324386
1040
4242.806616229696
1040
6840.326803324386
1040
4247.806616229696
1040
6540.326803324386
1040
4247.806616229696
1040
6540.326803324386
1040
4242.806616229696
1071
        0
1071
        7
1070
     0
1070
     1
1071
        4
1040
6540.326803324386
1040
4192.806616229696
1040
6540.326803324386
1040
4187.806616229696
1040
6840.326803324386
1040
4187.806616229695
1040
6840.326803324386
1040
4192.806616229696
1071
        0
1070
     0
1070
     1
1040
0.8920577872630016
1071
        3
1040
6735.502238865513
1040
4212.629536576882
1040
0.0
1040
6690.853079403321
1040
4244.743620538335
1040
0.0
1040
6682.81623207716
1040
4190.328110574432
1040
0.0
1002
}
  0
INSERT
  5
638
330
1EE
100
AcDbEntity
  8
HATCH
  6
CONTINUOUS
 62
   254
100
AcDbBlockReference
  2
*U21
 10
0.0
 20
0.0
 30
0.0
1001
ACAD
1002
{
1000
R14_HATCH_DATA
1000
638
1011
1.0
1021
0.0
1031
0.0
1011
0.0
1021
1.0
1031
0.0
1011
0.0
1021
0.0
1031
1.0
1040
0.0
1010
0.0
1020
0.0
1030
1.0
1000
SOLID
1070
     1
1070
     0
1071
        1
1071
        7
1070
     1
1070
     1
1071
       14
1040
6840.326803324386
1040
4247.806616229698
1040
0.0
1040
6840.326803324386
1040
4242.806616229696
1040
1.0
1040
6840.326803324386
1040
4192.806616229696
1040
0.0
1040
6840.326803324386
1040
4187.806616229696
1040
0.0
1040
6696.326803324385
1040
4187.806616229695
1040
0.0
1040
6696.326803324383
1040
4184.306616229696
1040
0.0
1040
6723.826803324384
1040
4184.306616229696
1040
0.0
1040
6723.826803324382
1040
4117.306616229697
1040
0.0
1040
6696.326803324383
1040
4117.306616229697
1040
2.733932660782704
1040
6696.326803324386
1040
4318.306616229697
1040
0.0
1040
6723.826803324389
1040
4318.306616229697
1040
0.0
1040
6723.826803324389
1040
4251.306616229697
1040
0.0
1040
6696.326803324386
1040
4251.306616229697
1040
0.0
1040
6696.326803324385
1040
4247.806616229696
1040
0.0
1071
        0
1070
     0
1070
     1
1040
0.8920577872630016
1071
        1
1040
6803.368941969726
1040
4269.721260663609
1040
0.0
1002
}
  0
INSERT
  5
639
330
1EE
100
AcDbEntity
  8
HATCH
  6
CONTINUOUS
 62
     1
100
AcDbBlockReference
  2
*U22
 10
0.0
 20
0.0
 30
0.0
1001
ACAD
1002
{
1000
R14_HATCH_DATA
1000
639
1011
1.0
1021
0.0
1031
0.0
1011
0.0
1021
1.0
1031
0.0
1011
0.0
1021
0.0
1031
1.0
1040
0.0
1010
0.0
1020
0.0
1030
1.0
1000
SOLID
1070
     1
1070
     0
1071
        4
1071
        5
1071
        7
1070
     1
1040
6403.826803324388
1040
4705.085836843275
1040
6351.106023937965
1040
4757.806616229697
1070
     1
1040
6351.106023937965
1040
4757.806616229697
1040
6311.263678369481
1040
4757.806616229697
1070
     3
1040
6213.826803324387
1040
4740.99313930826
1040
100.0
1040
0.0
1040
0.7474093186836594
1040
6.056286661737395
1040
6.283185307179582
1070
     0
1070
     1
1040
6313.826803324388
1040
4740.993139308232
1040
6313.826803324388
1040
4577.806616229697
1070
     1
1040
6313.826803324388
1040
4577.806616229697
1040
6351.106023937965
1040
4577.806616229697
1070
     1
1040
6351.106023937965
1040
4577.806616229697
1040
6403.826803324388
1040
4630.527395616119
1070
     1
1040
6403.826803324388
1040
4630.527395616119
1040
6403.826803324388
1040
4705.085836843275
1071
        0
1071
        7
1070
     0
1070
     1
1071
        8
1040
7103.826803324388
1040
4705.085836843276
1040
7051.106023937967
1040
4757.806616229696
1040
6976.547582710809
1040
4757.806616229696
1040
6923.826803324388
1040
4705.085836843275
1040
6923.826803324388
1040
4630.527395616118
1040
6976.547582710806
1040
4577.806616229697
1040
7051.106023937967
1040
4577.806616229696
1040
7103.826803324388
1040
4630.527395616118
1071
        0
1071
        7
1070
     0
1070
     1
1071
        8
1040
7103.826803324388
1040
3805.085836843275
1040
7051.106023937968
1040
3857.806616229695
1040
6976.547582710809
1040
3857.806616229695
1040
6923.826803324388
1040
3805.085836843275
1040
6923.826803324388
1040
3730.527395616118
1040
6976.547582710806
1040
3677.806616229696
1040
7051.106023937967
1040
3677.806616229696
1040
7103.826803324388
1040
3730.527395616118
1071
        0
1071
        5
1071
        7
1070
     1
1040
6403.826803324389
1040
3805.085836843274
1040
6351.106023937965
1040
3857.806616229697
1070
     1
1040
6351.106023937965
1040
3857.806616229697
1040
6313.826803324388
1040
3857.806616229696
1070
     1
1040
6313.826803324388
1040
3857.806616229696
1040
6313.826803324388
1040
3694.620093151169
1070
     3
1040
6213.826803324387
1040
3694.620093151135
1040
-100.0
1040
0.0
1040
0.7474093186836602
1040
3.141592653589794
1040
3.368491299032009
1070
     0
1070
     1
1040
6311.263678369479
1040
3677.806616229696
1040
6351.106023937965
1040
3677.806616229696
1070
     1
1040
6351.106023937965
1040
3677.806616229696
1040
6403.826803324389
1040
3730.527395616118
1070
     1
1040
6403.826803324389
1040
3730.527395616118
1040
6403.826803324389
1040
3805.085836843274
1071
        0
1070
     0
1070
     1
1040
3.286889629159116
1071
        4
1040
6365.735037092534
1040
4641.942659728607
1040
0.0
1040
6984.311266813477
1040
4671.52465741348
1040
0.0
1040
6994.182168857246
1040
3738.047993175525
1040
0.0
1040
6365.735037092534
1040
3761.056221303639
1040
0.0
1002
}
  0
INSERT
  5
63A
330
1EE
100
AcDbEntity
  8
HATCH
  6
CONTINUOUS
 62
   251
100
AcDbBlockReference
  2
*U23
 10
0.0
 20
0.0
 30
0.0
1001
ACAD
1002
{
1000
R14_HATCH_DATA
1000
63A
1011
1.0
1021
0.0
1031
0.0
1011
0.0
1021
1.0
1031
0.0
1011
0.0
1021
0.0
1031
1.0
1040
0.0
1010
0.0
1020
0.0
1030
1.0
1000
SOLID
1070
     1
1070
     1
1071
        3
1071
        7
1070
     0
1070
     1
1071
        8
1040
6936.547582710808
1040
4617.806616229696
1040
6923.826803324388
1040
4630.527395616118
1040
6923.826803324388
1040
4705.085836843275
1040
6936.54758271081
1040
4717.806616229696
1040
6391.106023937966
1040
4717.806616229696
1040
6403.826803324388
1040
4705.085836843276
1040
6403.826803324388
1040
4630.527395616117
1040
6391.106023937966
1040
4617.806616229696
1071
        4
1005
6A8
1005
6CF
1005
6B2
1005
6D0
1071
        7
1070
     1
1070
     1
1071
       10
1040
6963.826803324386
1040
4264.806616229698
1040
-0.1544730299714994
1040
6963.826803324387
1040
4170.8066162297
1040
0.0
1040
6963.826803324387
1040
3845.085836843274
1040
0.0
1040
6976.547582710809
1040
3857.806616229695
1040
0.0
1040
7051.106023937967
1040
3857.806616229695
1040
0.0
1040
7063.826803324388
1040
3845.085836843273
1040
0.0
1040
7063.826803324388
1040
4590.527395616117
1040
0.0
1040
7051.106023937968
1040
4577.806616229696
1040
0.0
1040
6976.547582710806
1040
4577.806616229696
1040
0.0
1040
6963.826803324387
1040
4590.527395616116
1040
0.0
1071
        6
1005
6A8
1005
6BB
1005
6C5
1005
6C4
1005
68E
1005
6E2
1071
        7
1070
     0
1070
     1
1071
        8
1040
6391.106023937968
1040
3817.806616229695
1040
6403.826803324388
1040
3805.085836843273
1040
6403.826803324389
1040
3730.527395616118
1040
6391.106023937966
1040
3717.806616229696
1040
6936.547582710808
1040
3717.806616229696
1040
6923.826803324388
1040
3730.527395616116
1040
6923.826803324388
1040
3805.085836843275
1040
6936.547582710807
1040
3817.806616229695
1071
        4
1005
68E
1005
6C0
1005
68F
1005
6A7
1070
     0
1070
     1
1040
3.286889629159116
1071
        3
1040
6658.57163707156
1040
4655.090198842124
1040
0.0
1040
7007.34332568154
1040
4359.270117955056
1040
0.0
1040
6628.95899979135
1040
3790.638218988504
1040
0.0
1002
}
  0
MTEXT
  5
63B
330
1EE
100
AcDbEntity
  8
TEKST
100
AcDbMText
 10
3319.225804725894
 20
5897.694100471085
 30
0.0
 40
75.18097186823435
 41
868.6785999999997
 71
     1
 72
     1
  1
{\FIMPACT.TTF;Hoogte: 178 cm\PMax. valhoogte: 20 cm}
1001
ACAD
1000
MTEXTBEGIN
1070
    73
1070
     1
1070
    44
1040
1.0
1070
    74
1070
     0
1000
MTEXTEND
1000
MTEXTBEGIN
1070
    73
1070
     1
1070
    44
1040
1.0
1070
    74
1070
     0
1000
MTEXTEND
  0
POLYLINE
  5
63C
330
1EE
100
AcDbEntity
  8
SAFETY
100
AcDb2dPolyline
 66
     1
 10
0.0
 20
0.0
 30
0.0
  0
VERTEX
  5
8C4
330
63C
100
AcDbEntity
  8
SAFETY
100
AcDbVertex
100
AcDb2dVertex
 10
5963.826803324387
 20
7615.734071176624
 30
0.0
 42
-0.3323151919722344
  0
VERTEX
  5
8C5
330
63C
100
AcDbEntity
  8
SAFETY
100
AcDbVertex
100
AcDb2dVertex
 10
7402.277228389187
 20
6541.010892354193
 30
0.0
 42
-0.3566910228188814
  0
VERTEX
  5
8C6
330
63C
100
AcDbEntity
  8
SAFETY
100
AcDbVertex
100
AcDb2dVertex
 10
8603.826803324386
 20
5071.001591778634
 30
0.0
  0
VERTEX
  5
8C7
330
63C
100
AcDbEntity
  8
SAFETY
100
AcDbVertex
100
AcDb2dVertex
 10
8603.826803324386
 20
1517.806616229695
 30
0.0
 42
-0.4142135623730951
  0
VERTEX
  5
8C8
330
63C
100
AcDbEntity
  8
SAFETY
100
AcDbVertex
100
AcDb2dVertex
 10
7103.826803324385
 20
17.80661622969546
 30
0.0
  0
VERTEX
  5
8C9
330
63C
100
AcDbEntity
  8
SAFETY
100
AcDbVertex
100
AcDb2dVertex
 10
1517.817357984654
 20
17.80661622969546
 30
0.0
 42
-0.4142135623730951
  0
VERTEX
  5
8CA
330
63C
100
AcDbEntity
  8
SAFETY
100
AcDbVertex
100
AcDb2dVertex
 10
17.81735798465365
 20
1517.806616229695
 30
0.0
  0
VERTEX
  5
8CB
330
63C
100
AcDbEntity
  8
SAFETY
100
AcDbVertex
100
AcDb2dVertex
 10
17.81735798465454
 20
5071.001591778634
 30
0.0
 42
-0.4142135623730951
  0
VERTEX
  5
8CC
330
63C
100
AcDbEntity
  8
SAFETY
100
AcDbVertex
100
AcDb2dVertex
 10
1517.817357984654
 20
6571.001591778633
 30
0.0
  0
VERTEX
  5
8CD
330
63C
100
AcDbEntity
  8
SAFETY
100
AcDbVertex
100
AcDb2dVertex
 10
4334.585226583457
 20
6571.001591778633
 30
0.0
 42
-0.3265188936043263
  0
VERTEX
  5
8CE
330
63C
100
AcDbEntity
  8
SAFETY
100
AcDbVertex
100
AcDb2dVertex
 10
5763.826803324389
 20
7615.734071176624
 30
0.0
  0
SEQEND
  5
8CF
330
63C
100
AcDbEntity
  8
SAFETY
  0
LINE
  5
63D
330
1EE
100
AcDbEntity
  8
OBJECT
100
AcDbLine
 10
6213.826803324387
 20
3619.879161282769
 30
0.0
 11
4116.826803324387
 21
3619.879161282769
 31
0.0
  0
LINE
  5
63E
330
1EE
100
AcDbEntity
  8
OBJECT
100
AcDbLine
 10
4116.826803324387
 20
4815.734071176624
 30
0.0
 11
6213.826803324387
 21
4815.734071176624
 31
0.0
  0
LINE
  5
63F
330
1EE
100
AcDbEntity
  8
OBJECT
100
AcDbLine
 10
4016.826803324387
 20
4217.806616229696
 30
0.0
 11
6313.826803324388
 21
4217.806616229696
 31
0.0
  0
LINE
  5
640
330
1EE
100
AcDbEntity
  8
OBJECT
100
AcDbLine
 10
3516.826803324387
 20
2867.806616229696
 30
0.0
 11
4416.826803324386
 21
2867.806616229696
 31
0.0
  0
LINE
  5
641
330
1EE
100
AcDbEntity
  8
OBJECT
100
AcDbLine
 10
3516.826803324387
 20
2967.806616229696
 30
0.0
 11
4416.826803324386
 21
2967.806616229696
 31
0.0
  0
LINE
  5
642
330
1EE
100
AcDbEntity
  8
OBJECT
100
AcDbLine
 10
4016.826803324387
 20
4217.806616229696
 30
0.0
 11
4016.826803324387
 21
3694.620093151135
 31
0.0
  0
LINE
  5
643
330
1EE
100
AcDbEntity
  8
OBJECT
100
AcDbLine
 10
3516.826803324387
 20
4667.806616229696
 30
0.0
 11
3516.826803324387
 21
3767.806616229695
 31
0.0
  0
LINE
  5
644
330
1EE
100
AcDbEntity
  8
OBJECT
100
AcDbLine
 10
3616.826803324387
 20
4667.806616229696
 30
0.0
 11
3616.826803324387
 21
3767.806616229695
 31
0.0
  0
LINE
  5
645
330
1EE
100
AcDbEntity
  8
OBJECT
100
AcDbLine
 10
1866.826803324387
 20
3667.806616229695
 30
0.0
 11
1866.826803324387
 21
4767.806616229696
 31
0.0
  0
LINE
  5
646
330
1EE
100
AcDbEntity
  8
OBJECT
100
AcDbLine
 10
2066.826803324385
 20
3667.806616229695
 30
0.0
 11
2066.826803324387
 21
4767.806616229697
 31
0.0
  0
LINE
  5
647
330
1EE
100
AcDbEntity
  8
OBJECT
100
AcDbLine
 10
1966.826803324385
 20
4817.806616229694
 30
0.0
 11
1966.826803324385
 21
3667.806616229695
 31
0.0
  0
LINE
  5
648
330
1EE
100
AcDbEntity
  8
OBJECT
100
AcDbLine
 10
3516.826803324387
 20
3417.806616229695
 30
0.0
 11
2316.826803324385
 21
3417.806616229695
 31
0.0
  0
LINE
  5
649
330
1EE
100
AcDbEntity
  8
OBJECT
100
AcDbLine
 10
3516.826803324387
 20
3217.806616229696
 30
0.0
 11
2316.826803324385
 21
3217.806616229696
 31
0.0
  0
LINE
  5
64A
330
1EE
100
AcDbEntity
  8
OBJECT
100
AcDbLine
 10
1866.826803324387
 20
2967.806616229696
 30
0.0
 11
1866.826803324386
 21
1996.935400977488
 31
0.0
  0
LINE
  5
64B
330
1EE
100
AcDbEntity
  8
OBJECT
100
AcDbLine
 10
2066.826803324385
 20
2967.806616229696
 30
0.0
 11
2066.826803324385
 21
1946.935400977485
 31
0.0
  0
LINE
  5
64C
330
1EE
100
AcDbEntity
  8
OBJECT
100
AcDbLine
 10
1966.826803324385
 20
2967.806616229696
 30
0.0
 11
1966.826803324385
 21
1946.935400977485
 31
0.0
  0
ARC
  5
64D
330
1EE
100
AcDbEntity
  8
OBJECT
100
AcDbCircle
 10
1966.826803324385
 20
1767.806616229696
 30
0.0
 40
250.0
100
AcDbArc
 50
113.5781784781833
 51
66.42182152181668
  0
LINE
  5
64E
330
1EE
100
AcDbEntity
  8
OBJECT
100
AcDbLine
 10
1866.826803324386
 20
1946.935400977485
 30
0.0
 11
2066.826803324385
 21
1946.935400977485
 31
0.0
  0
ARC
  5
64F
330
1EE
100
AcDbEntity
  8
OBJECT
100
AcDbCircle
 10
1966.826803324385
 20
1767.806616229696
 30
0.0
 40
230.0
100
AcDbArc
 50
115.7714617405714
 51
64.22853825942856
  0
LINE
  5
650
330
1EE
100
AcDbEntity
  8
OBJECT
100
AcDbLine
 10
1866.826803324386
 20
1996.935400977488
 30
0.0
 11
1866.826803324386
 21
1946.935400977485
 31
0.0
  0
LINE
  5
651
330
1EE
100
AcDbEntity
  8
OBJECT
100
AcDbLine
 10
2316.826803324385
 20
2967.806616229696
 30
0.0
 11
1616.826803324387
 21
2967.806616229696
 31
0.0
  0
LINE
  5
652
330
1EE
100
AcDbEntity
  8
OBJECT
100
AcDbLine
 10
1616.826803324387
 20
3667.806616229695
 30
0.0
 11
2316.826803324385
 21
3667.806616229695
 31
0.0
  0
LINE
  5
653
330
1EE
100
AcDbEntity
  8
OBJECT
100
AcDbLine
 10
1636.826803324386
 20
3647.806616229696
 30
0.0
 11
2296.826803324385
 21
3647.806616229696
 31
0.0
  0
LINE
  5
654
330
1EE
100
AcDbEntity
  8
OBJECT
100
AcDbLine
 10
2296.826803324385
 20
2987.806616229696
 30
0.0
 11
1636.826803324386
 21
2987.806616229696
 31
0.0
  0
LINE
  5
655
330
1EE
100
AcDbEntity
  8
OBJECT
100
AcDbLine
 10
1616.826803324387
 20
2967.806616229696
 30
0.0
 11
1616.826803324387
 21
3667.806616229695
 31
0.0
  0
LINE
  5
656
330
1EE
100
AcDbEntity
  8
OBJECT
100
AcDbLine
 10
1636.826803324386
 20
2987.806616229696
 30
0.0
 11
1636.826803324386
 21
3647.806616229696
 31
0.0
  0
LINE
  5
657
330
1EE
100
AcDbEntity
  8
OBJECT
100
AcDbLine
 10
2066.826803324385
 20
3007.806616229696
 30
0.0
 11
1741.826803324386
 21
3007.806616229696
 31
0.0
  0
LINE
  5
658
330
1EE
100
AcDbEntity
  8
OBJECT
100
AcDbLine
 10
1816.826803324387
 20
2887.806616229696
 30
0.0
 11
1816.826803324387
 21
2952.806616229695
 31
0.0
  0
LINE
  5
659
330
1EE
100
AcDbEntity
  8
OBJECT
100
AcDbLine
 10
1786.826803324387
 20
2887.806616229696
 30
0.0
 11
1786.826803324387
 21
2952.806616229695
 31
0.0
  0
LINE
  5
65A
330
1EE
100
AcDbEntity
  8
OBJECT
100
AcDbLine
 10
1786.826803324387
 20
2887.806616229696
 30
0.0
 11
1816.826803324387
 21
2887.806616229696
 31
0.0
  0
LINE
  5
65B
330
1EE
100
AcDbEntity
  8
OBJECT
100
AcDbLine
 10
1801.826803324387
 20
2887.806616229696
 30
0.0
 11
1786.826803324387
 21
2887.806616229696
 31
0.0
  0
ARC
  5
65C
330
1EE
100
AcDbEntity
  8
OBJECT
100
AcDbCircle
 10
1776.826803324387
 20
2952.806616229695
 30
0.0
 40
10.0
100
AcDbArc
 50
0.0
 51
90.0
  0
LINE
  5
65D
330
1EE
100
AcDbEntity
  8
OBJECT
100
AcDbLine
 10
1829.326803324385
 20
2962.806616229696
 30
0.0
 11
1776.826803324387
 21
2962.806616229696
 31
0.0
  0
LINE
  5
65E
330
1EE
100
AcDbEntity
  8
OBJECT
100
AcDbLine
 10
1776.826803324387
 20
2962.806616229696
 30
0.0
 11
1776.826803324387
 21
2967.806616229696
 31
0.0
  0
LINE
  5
65F
330
1EE
100
AcDbEntity
  8
OBJECT
100
AcDbLine
 10
1741.826803324386
 20
3007.806616229696
 30
0.0
 11
1741.826803324387
 21
2967.806616229696
 31
0.0
  0
LINE
  5
660
330
1EE
100
AcDbEntity
  8
OBJECT
100
AcDbLine
 10
1741.826803324386
 20
3007.806616229696
 30
0.0
 11
1741.826803324387
 21
2967.806616229696
 31
0.0
  0
LINE
  5
661
330
1EE
100
AcDbEntity
  8
OBJECT
100
AcDbLine
 10
1829.326803324385
 20
2962.806616229696
 30
0.0
 11
1829.326803324385
 21
2967.806616229696
 31
0.0
  0
LINE
  5
662
330
1EE
100
AcDbEntity
  8
OBJECT
100
AcDbLine
 10
1826.826803324387
 20
2962.806616229696
 30
0.0
 11
1829.326803324385
 21
2962.806616229696
 31
0.0
  0
ARC
  5
663
330
1EE
100
AcDbEntity
  8
OBJECT
100
AcDbCircle
 10
1826.826803324387
 20
2952.806616229695
 30
0.0
 40
10.0
100
AcDbArc
 50
90.0
 51
180.0
  0
LINE
  5
664
330
1EE
100
AcDbEntity
  8
OBJECT
100
AcDbLine
 10
2066.826803324385
 20
3007.806616229696
 30
0.0
 11
2066.826803324385
 21
2967.806616229696
 31
0.0
  0
LINE
  5
665
330
1EE
100
AcDbEntity
  8
OBJECT
100
AcDbLine
 10
2066.826803324385
 20
3647.806616229696
 30
0.0
 11
1744.956199221235
 21
3647.806616229696
 31
0.0
  0
LINE
  5
666
330
1EE
100
AcDbEntity
  8
OBJECT
100
AcDbLine
 10
1741.826803324386
 20
3627.806616229696
 30
0.0
 11
2066.826803324385
 21
3627.806616229696
 31
0.0
  0
ARC
  5
667
330
1EE
100
AcDbEntity
  8
OBJECT
100
AcDbCircle
 10
1776.826803324387
 20
3682.806616229696
 30
0.0
 40
10.0
100
AcDbArc
 50
270.0
 51
0.0
  0
LINE
  5
668
330
1EE
100
AcDbEntity
  8
OBJECT
100
AcDbLine
 10
1829.326803324385
 20
3672.806616229696
 30
0.0
 11
1776.826803324387
 21
3672.806616229696
 31
0.0
  0
LINE
  5
669
330
1EE
100
AcDbEntity
  8
OBJECT
100
AcDbLine
 10
1741.826803324387
 20
3647.806616229696
 30
0.0
 11
1741.826803324386
 21
3627.806616229696
 31
0.0
  0
LINE
  5
66A
330
1EE
100
AcDbEntity
  8
OBJECT
100
AcDbLine
 10
1776.826803324387
 20
3672.806616229696
 30
0.0
 11
1776.826803324387
 21
3667.806616229695
 31
0.0
  0
LINE
  5
66B
330
1EE
100
AcDbEntity
  8
OBJECT
100
AcDbLine
 10
1816.826803324387
 20
3747.806616229696
 30
0.0
 11
1816.826803324387
 21
3682.806616229696
 31
0.0
  0
LINE
  5
66C
330
1EE
100
AcDbEntity
  8
OBJECT
100
AcDbLine
 10
1826.826803324387
 20
3672.806616229696
 30
0.0
 11
1829.326803324385
 21
3672.806616229696
 31
0.0
  0
ARC
  5
66D
330
1EE
100
AcDbEntity
  8
OBJECT
100
AcDbCircle
 10
1826.826803324387
 20
3682.806616229696
 30
0.0
 40
10.0
100
AcDbArc
 50
180.0
 51
270.0
  0
LINE
  5
66E
330
1EE
100
AcDbEntity
  8
OBJECT
100
AcDbLine
 10
1829.326803324385
 20
3672.806616229696
 30
0.0
 11
1829.326803324385
 21
3667.806616229695
 31
0.0
  0
LINE
  5
66F
330
1EE
100
AcDbEntity
  8
OBJECT
100
AcDbLine
 10
1786.826803324387
 20
3747.806616229696
 30
0.0
 11
1786.826803324387
 21
3682.806616229696
 31
0.0
  0
LINE
  5
670
330
1EE
100
AcDbEntity
  8
OBJECT
100
AcDbLine
 10
1801.826803324387
 20
3747.806616229696
 30
0.0
 11
1786.826803324387
 21
3747.806616229696
 31
0.0
  0
LINE
  5
671
330
1EE
100
AcDbEntity
  8
OBJECT
100
AcDbLine
 10
1786.826803324387
 20
3747.806616229696
 30
0.0
 11
1816.826803324387
 21
3747.806616229696
 31
0.0
  0
LINE
  5
672
330
1EE
100
AcDbEntity
  8
OBJECT
100
AcDbLine
 10
2066.826803324385
 20
3667.806616229695
 30
0.0
 11
2066.826803324385
 21
3627.806616229696
 31
0.0
  0
LINE
  5
673
330
1EE
100
AcDbEntity
  8
OBJECT
100
AcDbLine
 10
2316.826803324385
 20
3667.806616229695
 30
0.0
 11
2316.826803324385
 21
2967.806616229696
 31
0.0
  0
LINE
  5
674
330
1EE
100
AcDbEntity
  8
OBJECT
100
AcDbLine
 10
2296.826803324385
 20
3647.806616229696
 30
0.0
 11
2296.826803324385
 21
2987.806616229696
 31
0.0
  0
POLYLINE
  5
675
330
1EE
100
AcDbEntity
  8
OBJECT
100
AcDb2dPolyline
 66
     1
 10
0.0
 20
0.0
 30
0.0
 70
     1
  0
VERTEX
  5
8D0
330
675
100
AcDbEntity
  8
OBJECT
100
AcDbVertex
100
AcDb2dVertex
 10
3616.826803324387
 20
3242.806616229696
 30
0.0
  0
VERTEX
  5
8D1
330
675
100
AcDbEntity
  8
OBJECT
100
AcDbVertex
100
AcDb2dVertex
 10
3766.826803324387
 20
3242.806616229696
 30
0.0
  0
VERTEX
  5
8D2
330
675
100
AcDbEntity
  8
OBJECT
100
AcDbVertex
100
AcDb2dVertex
 10
3766.826803324387
 20
3392.806616229695
 30
0.0
  0
VERTEX
  5
8D3
330
675
100
AcDbEntity
  8
OBJECT
100
AcDbVertex
100
AcDb2dVertex
 10
3616.826803324387
 20
3392.806616229695
 30
0.0
  0
SEQEND
  5
8D4
330
675
100
AcDbEntity
  8
OBJECT
  0
LINE
  5
676
330
1EE
100
AcDbEntity
  8
OBJECT
100
AcDbLine
 10
3516.826803324387
 20
3767.806616229695
 30
0.0
 11
4016.826803324387
 21
3767.806616229695
 31
0.0
  0
LINE
  5
677
330
1EE
100
AcDbEntity
  8
OBJECT
100
AcDbLine
 10
3516.826803324387
 20
3767.806616229695
 30
0.0
 11
3516.826803324387
 21
2867.806616229696
 31
0.0
  0
LINE
  5
678
330
1EE
100
AcDbEntity
  8
OBJECT
100
AcDbLine
 10
3616.826803324387
 20
3767.806616229695
 30
0.0
 11
3616.826803324387
 21
2867.806616229696
 31
0.0
  0
LINE
  5
679
330
1EE
100
AcDbEntity
  8
OBJECT
100
AcDbLine
 10
3516.826803324387
 20
3317.806616229695
 30
0.0
 11
3616.826803324387
 21
3317.806616229695
 31
0.0
  0
POLYLINE
  5
67A
330
1EE
100
AcDbEntity
  8
OBJECT
100
AcDb2dPolyline
 66
     1
 10
0.0
 20
0.0
 30
0.0
 70
     1
  0
VERTEX
  5
8D5
330
67A
100
AcDbEntity
  8
OBJECT
100
AcDbVertex
100
AcDb2dVertex
 10
3766.826803324387
 20
3267.806616229695
 30
0.0
  0
VERTEX
  5
8D6
330
67A
100
AcDbEntity
  8
OBJECT
100
AcDbVertex
100
AcDb2dVertex
 10
3816.826803324387
 20
3267.806616229695
 30
0.0
  0
VERTEX
  5
8D7
330
67A
100
AcDbEntity
  8
OBJECT
100
AcDbVertex
100
AcDb2dVertex
 10
3816.826803324387
 20
3367.806616229696
 30
0.0
  0
VERTEX
  5
8D8
330
67A
100
AcDbEntity
  8
OBJECT
100
AcDbVertex
100
AcDb2dVertex
 10
3766.826803324387
 20
3367.806616229696
 30
0.0
  0
SEQEND
  5
8D9
330
67A
100
AcDbEntity
  8
OBJECT
  0
ELLIPSE
  5
67B
330
1EE
100
AcDbEntity
  8
OBJECT
100
AcDbEllipse
 10
4116.826803324387
 20
3694.620093151135
 30
0.0
 11
-100.0
 21
0.0
 31
0.0
210
0.0
220
0.0
230
1.0
 40
0.7474093186836601
 41
0.0000000000000002
 42
1.570796326794894
  0
ARC
  5
67C
330
1EE
100
AcDbEntity
  8
OBJECT
100
AcDbCircle
 10
1716.826803324385
 20
4867.806616229696
 30
0.0
 40
200.0
100
AcDbArc
 50
30.00000000001032
 51
318.5903778907205
  0
ARC
  5
67D
330
1EE
100
AcDbEntity
  8
OBJECT
100
AcDbCircle
 10
1716.826803324388
 20
4867.806616229696
 30
0.0
 40
179.9999999999992
100
AcDbArc
 50
33.7489885958992
 51
326.2510114041006
  0
LINE
  5
67E
330
1EE
100
AcDbEntity
  8
OBJECT
100
AcDbLine
 10
1716.826803324388
 20
4967.806616229696
 30
0.0
 11
2216.826803324384
 21
4967.806616229696
 31
0.0
  0
LINE
  5
67F
330
1EE
100
AcDbEntity
  8
OBJECT
100
AcDbLine
 10
1716.826803324385
 20
4867.806616229696
 30
0.0
 11
2216.826803324384
 21
4867.806616229696
 31
0.0
  0
LINE
  5
680
330
1EE
100
AcDbEntity
  8
OBJECT
100
AcDbLine
 10
1866.826803324387
 20
4817.806616229696
 30
0.0
 11
2066.826803324387
 21
4817.806616229696
 31
0.0
  0
LINE
  5
681
330
1EE
100
AcDbEntity
  8
OBJECT
100
AcDbLine
 10
1716.826803324388
 20
4767.806616229696
 30
0.0
 11
1866.826803324387
 21
4767.806616229696
 31
0.0
  0
LINE
  5
682
330
1EE
100
AcDbEntity
  8
OBJECT
100
AcDbLine
 10
1716.826803324388
 20
4767.806616229696
 30
0.0
 11
1716.826803324388
 21
4967.806616229696
 31
0.0
  0
LINE
  5
683
330
1EE
100
AcDbEntity
  8
OBJECT
100
AcDbLine
 10
1781.299768514335
 20
4767.806616229696
 30
0.0
 11
1866.826803324387
 21
4767.806616229696
 31
0.0
  0
LINE
  5
684
330
1EE
100
AcDbEntity
  8
OBJECT
100
AcDbLine
 10
1866.826803324387
 20
4767.806616229696
 30
0.0
 11
1866.826803324387
 21
4817.806616229696
 31
0.0
  0
LINE
  5
685
330
1EE
100
AcDbEntity
  8
OBJECT
100
AcDbLine
 10
2066.826803324387
 20
4767.806616229696
 30
0.0
 11
2216.826803324384
 21
4767.806616229696
 31
0.0
  0
LINE
  5
686
330
1EE
100
AcDbEntity
  8
OBJECT
100
AcDbLine
 10
2066.826803324387
 20
4817.806616229696
 30
0.0
 11
2066.826803324387
 21
4767.806616229696
 31
0.0
  0
LINE
  5
687
330
1EE
100
AcDbEntity
  8
OBJECT
100
AcDbLine
 10
2216.826803324384
 20
4967.806616229696
 30
0.0
 11
2216.826803324384
 21
4767.806616229696
 31
0.0
  0
LINE
  5
688
330
1EE
100
AcDbEntity
  8
OBJECT
100
AcDbLine
 10
3516.826803324387
 20
4667.806616229696
 30
0.0
 11
4016.826803324387
 21
4667.806616229696
 31
0.0
  0
LINE
  5
689
330
1EE
100
AcDbEntity
  8
OBJECT
100
AcDbLine
 10
3516.826803324387
 20
4217.806616229696
 30
0.0
 11
3516.826803324387
 21
4667.806616229696
 31
0.0
  0
LINE
  5
68A
330
1EE
100
AcDbEntity
  8
OBJECT
100
AcDbLine
 10
4016.826803324387
 20
4217.806616229696
 30
0.0
 11
4016.826803324387
 21
4740.993139308257
 31
0.0
  0
ELLIPSE
  5
68B
330
1EE
100
AcDbEntity
  8
OBJECT
100
AcDbEllipse
 10
4116.826803324387
 20
4740.993139308257
 30
0.0
 11
100.0
 21
0.0
 31
0.0
210
0.0
220
0.0
230
1.0
 40
0.7474093186836594
 41
1.570796326794896
 42
3.141592653589792
  0
LINE
  5
68C
330
1EE
100
AcDbEntity
  8
OBJECT
100
AcDbLine
 10
6313.826803324388
 20
3694.620093151135
 30
0.0
 11
6313.826803324388
 21
4217.806616229696
 31
0.0
  0
LINE
  5
68D
330
1EE
100
AcDbEntity
  8
OBJECT
100
AcDbLine
 10
6313.826803324388
 20
3817.806616229695
 30
0.0
 11
6313.826803324388
 21
3717.806616229696
 31
0.0
  0
POLYLINE
  5
68E
330
1EE
100
AcDbEntity
  8
OBJECT
100
AcDb2dPolyline
 66
     1
 10
0.0
 20
0.0
 30
0.0
 70
     1
  0
VERTEX
  5
8DA
330
68E
100
AcDbEntity
  8
OBJECT
100
AcDbVertex
100
AcDb2dVertex
 10
6976.547582710809
 20
3857.806616229696
 30
0.0
  0
VERTEX
  5
8DB
330
68E
100
AcDbEntity
  8
OBJECT
100
AcDbVertex
100
AcDb2dVertex
 10
6923.826803324388
 20
3805.085836843275
 30
0.0
  0
VERTEX
  5
8DC
330
68E
100
AcDbEntity
  8
OBJECT
100
AcDbVertex
100
AcDb2dVertex
 10
6923.826803324388
 20
3730.527395616118
 30
0.0
  0
VERTEX
  5
8DD
330
68E
100
AcDbEntity
  8
OBJECT
100
AcDbVertex
100
AcDb2dVertex
 10
6976.547582710806
 20
3677.806616229696
 30
0.0
  0
VERTEX
  5
8DE
330
68E
100
AcDbEntity
  8
OBJECT
100
AcDbVertex
100
AcDb2dVertex
 10
7051.106023937967
 20
3677.806616229696
 30
0.0
  0
VERTEX
  5
8DF
330
68E
100
AcDbEntity
  8
OBJECT
100
AcDbVertex
100
AcDb2dVertex
 10
7103.826803324388
 20
3730.527395616118
 30
0.0
  0
VERTEX
  5
8E0
330
68E
100
AcDbEntity
  8
OBJECT
100
AcDbVertex
100
AcDb2dVertex
 10
7103.826803324388
 20
3805.085836843275
 30
0.0
  0
VERTEX
  5
8E1
330
68E
100
AcDbEntity
  8
OBJECT
100
AcDbVertex
100
AcDb2dVertex
 10
7051.106023937967
 20
3857.806616229696
 30
0.0
  0
SEQEND
  5
8E2
330
68E
100
AcDbEntity
  8
OBJECT
  0
POLYLINE
  5
68F
330
1EE
100
AcDbEntity
  8
OBJECT
100
AcDb2dPolyline
 66
     1
 10
0.0
 20
0.0
 30
0.0
  0
VERTEX
  5
8E3
330
68F
100
AcDbEntity
  8
OBJECT
100
AcDbVertex
100
AcDb2dVertex
 10
6311.263678369478
 20
3677.806616229696
 30
0.0
  0
VERTEX
  5
8E4
330
68F
100
AcDbEntity
  8
OBJECT
100
AcDbVertex
100
AcDb2dVertex
 10
6351.106023937965
 20
3677.806616229696
 30
0.0
  0
VERTEX
  5
8E5
330
68F
100
AcDbEntity
  8
OBJECT
100
AcDbVertex
100
AcDb2dVertex
 10
6403.826803324388
 20
3730.527395616118
 30
0.0
  0
VERTEX
  5
8E6
330
68F
100
AcDbEntity
  8
OBJECT
100
AcDbVertex
100
AcDb2dVertex
 10
6403.826803324388
 20
3805.085836843275
 30
0.0
  0
VERTEX
  5
8E7
330
68F
100
AcDbEntity
  8
OBJECT
100
AcDbVertex
100
AcDb2dVertex
 10
6351.106023937965
 20
3857.806616229697
 30
0.0
  0
VERTEX
  5
8E8
330
68F
100
AcDbEntity
  8
OBJECT
100
AcDbVertex
100
AcDb2dVertex
 10
6313.826803324388
 20
3857.806616229697
 30
0.0
  0
SEQEND
  5
8E9
330
68F
100
AcDbEntity
  8
OBJECT
  0
LINE
  5
690
330
1EE
100
AcDbEntity
  8
OBJECT
100
AcDbLine
 10
5316.826803324388
 20
2867.806616229696
 30
0.0
 11
6216.826803324387
 21
2867.806616229696
 31
0.0
  0
LINE
  5
691
330
1EE
100
AcDbEntity
  8
OBJECT
100
AcDbLine
 10
6216.826803324387
 20
1967.806616229696
 30
0.0
 11
5316.826803324388
 21
1967.806616229696
 31
0.0
  0
LINE
  5
692
330
1EE
100
AcDbEntity
  8
OBJECT
100
AcDbLine
 10
5316.826803324388
 20
2967.806616229696
 30
0.0
 11
6216.826803324387
 21
2967.806616229696
 31
0.0
  0
LINE
  5
693
330
1EE
100
AcDbEntity
  8
OBJECT
100
AcDbLine
 10
5516.826803324388
 20
2117.806616229696
 30
0.0
 11
5766.826803324388
 21
2117.806616229696
 31
0.0
  0
LINE
  5
694
330
1EE
100
AcDbEntity
  8
OBJECT
100
AcDbLine
 10
5516.826803324388
 20
2717.806616229696
 30
0.0
 11
5766.826803324388
 21
2717.806616229696
 31
0.0
  0
LINE
  5
695
330
1EE
100
AcDbEntity
  8
OBJECT
100
AcDbLine
 10
5536.826803324387
 20
2697.806616229696
 30
0.0
 11
5746.826803324387
 21
2697.806616229696
 31
0.0
  0
LINE
  5
696
330
1EE
100
AcDbEntity
  8
OBJECT
100
AcDbLine
 10
5536.826803324387
 20
2137.806616229696
 30
0.0
 11
5746.826803324387
 21
2137.806616229696
 31
0.0
  0
LINE
  5
697
330
1EE
100
AcDbEntity
  8
OBJECT
100
AcDbLine
 10
6116.826803324387
 20
2067.806616229696
 30
0.0
 11
5416.826803324386
 21
2067.806616229696
 31
0.0
  0
LINE
  5
698
330
1EE
100
AcDbEntity
  8
OBJECT
100
AcDbLine
 10
5316.826803324388
 20
1967.806616229696
 30
0.0
 11
5316.826803324388
 21
2867.806616229696
 31
0.0
  0
LINE
  5
699
330
1EE
100
AcDbEntity
  8
OBJECT
100
AcDbLine
 10
5416.826803324386
 20
2067.806616229696
 30
0.0
 11
5416.826803324386
 21
2867.806616229696
 31
0.0
  0
LINE
  5
69A
330
1EE
100
AcDbEntity
  8
OBJECT
100
AcDbLine
 10
5516.826803324388
 20
2717.806616229696
 30
0.0
 11
5516.826803324388
 21
2117.806616229696
 31
0.0
  0
LINE
  5
69B
330
1EE
100
AcDbEntity
  8
OBJECT
100
AcDbLine
 10
5536.826803324387
 20
2697.806616229696
 30
0.0
 11
5536.826803324387
 21
2137.806616229696
 31
0.0
  0
LINE
  5
69C
330
1EE
100
AcDbEntity
  8
OBJECT
100
AcDbLine
 10
4416.826803324386
 20
2867.806616229696
 30
0.0
 11
5316.826803324388
 21
2867.806616229696
 31
0.0
  0
LINE
  5
69D
330
1EE
100
AcDbEntity
  8
OBJECT
100
AcDbLine
 10
4416.826803324386
 20
2967.806616229696
 30
0.0
 11
5316.826803324388
 21
2967.806616229696
 31
0.0
  0
LINE
  5
69E
330
1EE
100
AcDbEntity
  8
OBJECT
100
AcDbLine
 10
4416.826803324386
 20
2867.806616229696
 30
0.0
 11
4416.826803324386
 21
3619.879161282769
 31
0.0
  0
LINE
  5
69F
330
1EE
100
AcDbEntity
  8
OBJECT
100
AcDbLine
 10
5316.826803324388
 20
2867.806616229696
 30
0.0
 11
5316.826803324388
 21
3619.879161282769
 31
0.0
  0
LINE
  5
6A0
330
1EE
100
AcDbEntity
  8
OBJECT
100
AcDbLine
 10
6216.826803324387
 20
2867.806616229696
 30
0.0
 11
6216.826803324387
 21
1967.806616229696
 31
0.0
  0
LINE
  5
6A1
330
1EE
100
AcDbEntity
  8
OBJECT
100
AcDbLine
 10
6116.826803324387
 20
2867.806616229696
 30
0.0
 11
6116.826803324387
 21
2067.806616229696
 31
0.0
  0
LINE
  5
6A2
330
1EE
100
AcDbEntity
  8
OBJECT
100
AcDbLine
 10
5766.826803324388
 20
2117.806616229696
 30
0.0
 11
5766.826803324388
 21
2717.806616229696
 31
0.0
  0
LINE
  5
6A3
330
1EE
100
AcDbEntity
  8
OBJECT
100
AcDbLine
 10
5746.826803324387
 20
2137.806616229696
 30
0.0
 11
5746.826803324387
 21
2697.806616229696
 31
0.0
  0
LINE
  5
6A4
330
1EE
100
AcDbEntity
  8
OBJECT
100
AcDbLine
 10
6216.826803324387
 20
2867.806616229696
 30
0.0
 11
6216.826803324387
 21
3619.912802273036
 31
0.0
  0
LINE
  5
6A5
330
1EE
100
AcDbEntity
  8
OBJECT
100
AcDbLine
 10
6116.826803324387
 20
2867.806616229696
 30
0.0
 11
6116.826803324387
 21
3619.912802273036
 31
0.0
  0
ELLIPSE
  5
6A6
330
1EE
100
AcDbEntity
  8
OBJECT
100
AcDbEllipse
 10
6213.826803324387
 20
3694.620093151135
 30
0.0
 11
-100.0
 21
0.0
 31
0.0
210
0.0
220
0.0
230
1.0
 40
0.7474093186836602
 41
1.570796326794896
 42
3.141592653589792
  0
LINE
  5
6A7
330
1EE
100
AcDbEntity
  8
OBJECT
100
AcDbLine
 10
6936.547582710808
 20
3717.806616229696
 30
0.0
 11
6391.106023937966
 21
3717.806616229696
 31
0.0
  0
POLYLINE
  5
6A8
330
1EE
100
AcDbEntity
  8
OBJECT
100
AcDb2dPolyline
 66
     1
 10
0.0
 20
0.0
 30
0.0
 70
     1
  0
VERTEX
  5
8EA
330
6A8
100
AcDbEntity
  8
OBJECT
100
AcDbVertex
100
AcDb2dVertex
 10
6976.547582710809
 20
4757.806616229696
 30
0.0
  0
VERTEX
  5
8EB
330
6A8
100
AcDbEntity
  8
OBJECT
100
AcDbVertex
100
AcDb2dVertex
 10
6923.826803324388
 20
4705.085836843275
 30
0.0
  0
VERTEX
  5
8EC
330
6A8
100
AcDbEntity
  8
OBJECT
100
AcDbVertex
100
AcDb2dVertex
 10
6923.826803324388
 20
4630.527395616118
 30
0.0
  0
VERTEX
  5
8ED
330
6A8
100
AcDbEntity
  8
OBJECT
100
AcDbVertex
100
AcDb2dVertex
 10
6976.547582710806
 20
4577.806616229696
 30
0.0
  0
VERTEX
  5
8EE
330
6A8
100
AcDbEntity
  8
OBJECT
100
AcDbVertex
100
AcDb2dVertex
 10
7051.106023937967
 20
4577.806616229696
 30
0.0
  0
VERTEX
  5
8EF
330
6A8
100
AcDbEntity
  8
OBJECT
100
AcDbVertex
100
AcDb2dVertex
 10
7103.826803324388
 20
4630.527395616117
 30
0.0
  0
VERTEX
  5
8F0
330
6A8
100
AcDbEntity
  8
OBJECT
100
AcDbVertex
100
AcDb2dVertex
 10
7103.826803324388
 20
4705.085836843275
 30
0.0
  0
VERTEX
  5
8F1
330
6A8
100
AcDbEntity
  8
OBJECT
100
AcDbVertex
100
AcDb2dVertex
 10
7051.106023937967
 20
4757.806616229696
 30
0.0
  0
SEQEND
  5
8F2
330
6A8
100
AcDbEntity
  8
OBJECT
  0
LINE
  5
6A9
330
1EE
100
AcDbEntity
  8
OBJECT
100
AcDbLine
 10
5763.826803324389
 20
5915.734071176625
 30
0.0
 11
5613.826803324386
 21
5915.734071176625
 31
0.0
  0
LINE
  5
6AA
330
1EE
100
AcDbEntity
  8
OBJECT
100
AcDbLine
 10
5763.826803324389
 20
5815.734071176624
 30
0.0
 11
5613.826803324386
 21
5815.734071176624
 31
0.0
  0
LINE
  5
6AB
330
1EE
100
AcDbEntity
  8
OBJECT
100
AcDbLine
 10
5613.826803324386
 20
5915.734071176625
 30
0.0
 11
5613.826803324386
 21
5815.734071176624
 31
0.0
  0
LINE
  5
6AC
330
1EE
100
AcDbEntity
  8
OBJECT
100
AcDbLine
 10
5763.826803324389
 20
4815.734071176624
 30
0.0
 11
5763.826803324389
 21
5815.734071176624
 31
0.0
  0
LINE
  5
6AD
330
1EE
100
AcDbEntity
  8
OBJECT
100
AcDbLine
 10
5963.826803324387
 20
4815.734071176624
 30
0.0
 11
5963.826803324387
 21
5815.734071176624
 31
0.0
  0
LINE
  5
6AE
330
1EE
100
AcDbEntity
  8
OBJECT
100
AcDbLine
 10
5783.826803324387
 20
4815.734071176624
 30
0.0
 11
5783.826803324387
 21
5815.734071176624
 31
0.0
  0
LINE
  5
6AF
330
1EE
100
AcDbEntity
  8
OBJECT
100
AcDbLine
 10
5943.826803324387
 20
4815.734071176624
 30
0.0
 11
5943.826803324387
 21
5815.734071176624
 31
0.0
  0
LINE
  5
6B0
330
1EE
100
AcDbEntity
  8
OBJECT
100
AcDbLine
 10
5913.826803324386
 20
4815.734071176624
 30
0.0
 11
5913.826803324386
 21
5815.734071176624
 31
0.0
  0
LINE
  5
6B1
330
1EE
100
AcDbEntity
  8
OBJECT
100
AcDbLine
 10
5813.826803324388
 20
4815.734071176624
 30
0.0
 11
5813.826803324388
 21
5815.734071176624
 31
0.0
  0
POLYLINE
  5
6B2
330
1EE
100
AcDbEntity
  8
OBJECT
100
AcDb2dPolyline
 66
     1
 10
0.0
 20
0.0
 30
0.0
  0
VERTEX
  5
8F3
330
6B2
100
AcDbEntity
  8
OBJECT
100
AcDbVertex
100
AcDb2dVertex
 10
6313.826803324388
 20
4577.806616229697
 30
0.0
  0
VERTEX
  5
8F4
330
6B2
100
AcDbEntity
  8
OBJECT
100
AcDbVertex
100
AcDb2dVertex
 10
6351.106023937965
 20
4577.806616229697
 30
0.0
  0
VERTEX
  5
8F5
330
6B2
100
AcDbEntity
  8
OBJECT
100
AcDbVertex
100
AcDb2dVertex
 10
6403.826803324388
 20
4630.527395616118
 30
0.0
  0
VERTEX
  5
8F6
330
6B2
100
AcDbEntity
  8
OBJECT
100
AcDbVertex
100
AcDb2dVertex
 10
6403.826803324388
 20
4705.085836843275
 30
0.0
  0
VERTEX
  5
8F7
330
6B2
100
AcDbEntity
  8
OBJECT
100
AcDbVertex
100
AcDb2dVertex
 10
6351.106023937965
 20
4757.806616229697
 30
0.0
  0
VERTEX
  5
8F8
330
6B2
100
AcDbEntity
  8
OBJECT
100
AcDbVertex
100
AcDb2dVertex
 10
6311.263678369479
 20
4757.806616229697
 30
0.0
  0
SEQEND
  5
8F9
330
6B2
100
AcDbEntity
  8
OBJECT
  0
LINE
  5
6B3
330
1EE
100
AcDbEntity
  8
OBJECT
100
AcDbLine
 10
6313.826803324388
 20
4318.306616229697
 30
0.0
 11
6723.826803324389
 21
4318.306616229697
 31
0.0
  0
LINE
  5
6B4
330
1EE
100
AcDbEntity
  8
OBJECT
100
AcDbLine
 10
6313.826803324388
 20
4184.306616229696
 30
0.0
 11
6723.826803324389
 21
4184.306616229696
 31
0.0
  0
LINE
  5
6B5
330
1EE
100
AcDbEntity
  8
OBJECT
100
AcDbLine
 10
6313.826803324388
 20
4251.306616229697
 30
0.0
 11
6723.826803324389
 21
4251.306616229697
 31
0.0
  0
LINE
  5
6B6
330
1EE
100
AcDbEntity
  8
OBJECT
100
AcDbLine
 10
6313.826803324388
 20
4117.306616229697
 30
0.0
 11
6723.826803324389
 21
4117.306616229697
 31
0.0
  0
LINE
  5
6B7
330
1EE
100
AcDbEntity
  8
OBJECT
100
AcDbLine
 10
6313.826803324388
 20
4740.993139308257
 30
0.0
 11
6313.826803324388
 21
4217.806616229696
 31
0.0
  0
LINE
  5
6B8
330
1EE
100
AcDbEntity
  8
OBJECT
100
AcDbLine
 10
6313.826803324388
 20
4217.806616229696
 30
0.0
 11
6313.826803324388
 21
4717.806616229696
 31
0.0
  0
LINE
  5
6B9
330
1EE
100
AcDbEntity
  8
OBJECT
100
AcDbLine
 10
6313.826803324388
 20
4717.806616229696
 30
0.0
 11
6313.826803324388
 21
4617.806616229696
 31
0.0
  0
ELLIPSE
  5
6BA
330
1EE
100
AcDbEntity
  8
OBJECT
100
AcDbEllipse
 10
6213.826803324387
 20
4740.99313930826
 30
0.0
 11
100.0
 21
0.0
 31
0.0
210
0.0
220
0.0
230
1.0
 40
0.7474093186836594
 41
0.0000000000000032
 42
1.570796326794896
  0
LINE
  5
6BB
330
1EE
100
AcDbEntity
  8
OBJECT
100
AcDbLine
 10
6963.826803324386
 20
4590.527395616118
 30
0.0
 11
6963.826803324386
 21
4264.806616229701
 31
0.0
  0
LINE
  5
6BC
330
1EE
100
AcDbEntity
  8
OBJECT
100
AcDbLine
 10
6540.326803324386
 20
4187.806616229696
 30
0.0
 11
6840.326803324386
 21
4187.806616229696
 31
0.0
  0
LINE
  5
6BD
330
1EE
100
AcDbEntity
  8
OBJECT
100
AcDbLine
 10
6540.326803324386
 20
4247.806616229696
 30
0.0
 11
6840.326803324386
 21
4247.806616229696
 31
0.0
  0
LINE
  5
6BE
330
1EE
100
AcDbEntity
  8
OBJECT
100
AcDbLine
 10
6540.326803324386
 20
4242.806616229696
 30
0.0
 11
6840.326803324386
 21
4242.806616229696
 31
0.0
  0
LINE
  5
6BF
330
1EE
100
AcDbEntity
  8
OBJECT
100
AcDbLine
 10
6540.326803324386
 20
4192.806616229696
 30
0.0
 11
6840.326803324386
 21
4192.806616229696
 31
0.0
  0
LINE
  5
6C0
330
1EE
100
AcDbEntity
  8
OBJECT
100
AcDbLine
 10
6936.547582710807
 20
3817.806616229695
 30
0.0
 11
6391.106023937966
 21
3817.806616229695
 31
0.0
  0
LINE
  5
6C1
330
1EE
100
AcDbEntity
  8
OBJECT
100
AcDbLine
 10
6540.326803324386
 20
4247.806616229696
 30
0.0
 11
6540.326803324386
 21
4242.806616229696
 31
0.0
  0
ARC
  5
6C2
330
1EE
100
AcDbEntity
  8
OBJECT
100
AcDbCircle
 10
6540.326803324386
 20
4217.806616229696
 30
0.0
 40
25.0
100
AcDbArc
 50
270.0
 51
90.0
  0
LINE
  5
6C3
330
1EE
100
AcDbEntity
  8
OBJECT
100
AcDbLine
 10
6540.326803324386
 20
4192.806616229696
 30
0.0
 11
6540.326803324386
 21
4187.806616229696
 31
0.0
  0
LINE
  5
6C4
330
1EE
100
AcDbEntity
  8
OBJECT
100
AcDbLine
 10
6963.826803324387
 20
4170.806616229691
 30
0.0
 11
6963.826803324387
 21
3845.085836843274
 31
0.0
  0
ARC
  5
6C5
330
1EE
100
AcDbEntity
  8
OBJECT
100
AcDbCircle
 10
6815.326803324386
 20
4217.806616229696
 30
0.0
 40
155.7602324086614
100
AcDbArc
 50
220.1823566480502
 51
139.8176433519498
  0
ARC
  5
6C6
330
1EE
100
AcDbEntity
  8
OBJECT
100
AcDbCircle
 10
6840.326803324386
 20
4217.806616229696
 30
0.0
 40
25.0
100
AcDbArc
 50
90.0
 51
270.0
  0
LINE
  5
6C7
330
1EE
100
AcDbEntity
  8
OBJECT
100
AcDbLine
 10
6723.826803324389
 20
4251.306616229697
 30
0.0
 11
6723.826803324389
 21
4318.306616229697
 31
0.0
  0
LINE
  5
6C8
330
1EE
100
AcDbEntity
  8
OBJECT
100
AcDbLine
 10
6684.326803324388
 20
4247.806616229696
 30
0.0
 11
6684.326803324387
 21
4318.306616229697
 31
0.0
  0
LINE
  5
6C9
330
1EE
100
AcDbEntity
  8
OBJECT
100
AcDbLine
 10
6696.326803324386
 20
4247.806616229696
 30
0.0
 11
6696.326803324386
 21
4318.306616229697
 31
0.0
  0
LINE
  5
6CA
330
1EE
100
AcDbEntity
  8
OBJECT
100
AcDbLine
 10
6723.826803324385
 20
4117.306616229697
 30
0.0
 11
6723.826803324385
 21
4184.306616229696
 31
0.0
  0
LINE
  5
6CB
330
1EE
100
AcDbEntity
  8
OBJECT
100
AcDbLine
 10
6684.326803324386
 20
4117.306616229696
 30
0.0
 11
6684.326803324386
 21
4187.806616229696
 31
0.0
  0
LINE
  5
6CC
330
1EE
100
AcDbEntity
  8
OBJECT
100
AcDbLine
 10
6696.326803324386
 20
4117.306616229696
 30
0.0
 11
6696.326803324386
 21
4187.806616229696
 31
0.0
  0
LINE
  5
6CD
330
1EE
100
AcDbEntity
  8
OBJECT
100
AcDbLine
 10
6840.326803324386
 20
4247.806616229696
 30
0.0
 11
6840.326803324386
 21
4242.806616229696
 31
0.0
  0
LINE
  5
6CE
330
1EE
100
AcDbEntity
  8
OBJECT
100
AcDbLine
 10
6840.326803324386
 20
4192.806616229696
 30
0.0
 11
6840.326803324386
 21
4187.806616229696
 31
0.0
  0
LINE
  5
6CF
330
1EE
100
AcDbEntity
  8
OBJECT
100
AcDbLine
 10
6391.106023937966
 20
4717.806616229696
 30
0.0
 11
6936.547582710807
 21
4717.806616229696
 31
0.0
  0
LINE
  5
6D0
330
1EE
100
AcDbEntity
  8
OBJECT
100
AcDbLine
 10
6391.106023937966
 20
4617.806616229696
 30
0.0
 11
6936.547582710808
 21
4617.806616229696
 31
0.0
  0
LINE
  5
6D1
330
1EE
100
AcDbEntity
  8
OBJECT
100
AcDbLine
 10
6113.826803324386
 20
5815.734071176624
 30
0.0
 11
5963.826803324387
 21
5815.734071176624
 31
0.0
  0
LINE
  5
6D2
330
1EE
100
AcDbEntity
  8
OBJECT
100
AcDbLine
 10
6113.826803324386
 20
5915.734071176625
 30
0.0
 11
5963.826803324387
 21
5915.734071176625
 31
0.0
  0
LINE
  5
6D3
330
1EE
100
AcDbEntity
  8
OBJECT
100
AcDbLine
 10
5963.826803324387
 20
5915.734071176625
 30
0.0
 11
5963.826803324387
 21
5815.734071176624
 31
0.0
  0
LINE
  5
6D4
330
1EE
100
AcDbEntity
  8
OBJECT
100
AcDbLine
 10
5943.826803324387
 20
5915.734071176625
 30
0.0
 11
5943.826803324387
 21
5815.734071176624
 31
0.0
  0
LINE
  5
6D5
330
1EE
100
AcDbEntity
  8
OBJECT
100
AcDbLine
 10
5913.826803324386
 20
5915.734071176625
 30
0.0
 11
5913.826803324386
 21
5815.734071176624
 31
0.0
  0
LINE
  5
6D6
330
1EE
100
AcDbEntity
  8
OBJECT
100
AcDbLine
 10
5763.826803324389
 20
5915.734071176625
 30
0.0
 11
5763.826803324389
 21
5815.734071176624
 31
0.0
  0
LINE
  5
6D7
330
1EE
100
AcDbEntity
  8
OBJECT
100
AcDbLine
 10
5783.826803324387
 20
5915.734071176625
 30
0.0
 11
5783.826803324387
 21
5815.734071176624
 31
0.0
  0
LINE
  5
6D8
330
1EE
100
AcDbEntity
  8
OBJECT
100
AcDbLine
 10
5813.826803324388
 20
5915.734071176625
 30
0.0
 11
5813.826803324388
 21
5815.734071176624
 31
0.0
  0
LINE
  5
6D9
330
1EE
100
AcDbEntity
  8
OBJECT
100
AcDbLine
 10
5763.826803324389
 20
6115.734071176625
 30
0.0
 11
5963.826803324387
 21
6115.734071176625
 31
0.0
  0
LINE
  5
6DA
330
1EE
100
AcDbEntity
  8
OBJECT
100
AcDbLine
 10
5763.826803324389
 20
5915.734071176625
 30
0.0
 11
5763.826803324389
 21
6115.734071176625
 31
0.0
  0
LINE
  5
6DB
330
1EE
100
AcDbEntity
  8
OBJECT
100
AcDbLine
 10
5783.826803324387
 20
5915.734071176625
 30
0.0
 11
5783.826803324387
 21
6115.734071176625
 31
0.0
  0
LINE
  5
6DC
330
1EE
100
AcDbEntity
  8
OBJECT
100
AcDbLine
 10
5813.826803324388
 20
5915.734071176625
 30
0.0
 11
5813.826803324388
 21
6115.734071176625
 31
0.0
  0
LINE
  5
6DD
330
1EE
100
AcDbEntity
  8
OBJECT
100
AcDbLine
 10
5963.826803324387
 20
5915.734071176625
 30
0.0
 11
5963.826803324387
 21
6115.734071176625
 31
0.0
  0
LINE
  5
6DE
330
1EE
100
AcDbEntity
  8
OBJECT
100
AcDbLine
 10
5943.826803324387
 20
5915.734071176625
 30
0.0
 11
5943.826803324387
 21
6115.734071176625
 31
0.0
  0
LINE
  5
6DF
330
1EE
100
AcDbEntity
  8
OBJECT
100
AcDbLine
 10
5913.826803324386
 20
5915.734071176625
 30
0.0
 11
5913.826803324386
 21
6115.734071176625
 31
0.0
  0
LINE
  5
6E0
330
1EE
100
AcDbEntity
  8
OBJECT
100
AcDbLine
 10
6113.826803324386
 20
5915.734071176625
 30
0.0
 11
6113.826803324386
 21
5815.734071176624
 31
0.0
  0
LINE
  5
6E1
330
1EE
100
AcDbEntity
  8
0
100
AcDbLine
 10
5763.826803324389
 20
7615.734071176624
 30
0.0
 11
5963.826803324387
 21
7615.734071176624
 31
0.0
  0
LINE
  5
6E2
330
1EE
100
AcDbEntity
  8
OBJECT
100
AcDbLine
 10
7063.826803324388
 20
4590.527395616117
 30
0.0
 11
7063.826803324388
 21
3845.085836843275
 31
0.0
  0
LINE
  5
6E3
330
1EE
100
AcDbEntity
  8
OBJECT
100
AcDbLine
 10
1866.826803324387
 20
4817.806616229696
 30
0.0
 11
1866.826803324387
 21
4767.806616229696
 31
0.0
  0
ENDBLK
  5
1F0
330
1EE
100
AcDbEntity
  8
0
100
AcDbBlockEnd
  0
BLOCK
  5
735
330
6EC
100
AcDbEntity
  8
0
100
AcDbBlockBegin
  2
*U1
 70
     1
 10
0.0
 20
0.0
 30
0.0
  3
*U1
  1

  0
SOLID
  5
6ED
330
6EC
100
AcDbEntity
  8
HATCH
  6
CONTINUOUS
 62
   251
100
AcDbTrace
 10
5316.826803324388
 20
3619.879161282769
 30
0.0
 11
4416.826803324386
 21
3619.879161282769
 31
0.0
 12
5316.826803324388
 22
2967.806616229696
 32
0.0
 13
5316.826803324388
 23
2967.806616229696
 33
0.0
210
0.0
220
0.0
230
1.0
  0
SOLID
  5
6EE
330
6EC
100
AcDbEntity
  8
HATCH
  6
CONTINUOUS
 62
   251
100
AcDbTrace
 10
4416.826803324386
 20
2967.806616229696
 30
0.0
 11
5316.826803324388
 21
2967.806616229696
 31
0.0
 12
4416.826803324386
 22
3619.879161282769
 32
0.0
 13
4416.826803324386
 23
3619.879161282769
 33
0.0
210
0.0
220
0.0
230
1.0
  0
SOLID
  5
6EF
330
6EC
100
AcDbEntity
  8
HATCH
  6
CONTINUOUS
 62
   251
100
AcDbTrace
 10
3616.826803324387
 20
3242.806616229696
 30
0.0
 11
3616.826803324387
 21
2967.806616229696
 31
0.0
 12
4416.826803324386
 22
2967.806616229696
 32
0.0
 13
4416.826803324386
 23
2967.806616229696
 33
0.0
210
0.0
220
0.0
230
1.0
  0
SOLID
  5
6F0
330
6EC
100
AcDbEntity
  8
HATCH
  6
CONTINUOUS
 62
   251
100
AcDbTrace
 10
4416.826803324386
 20
2967.806616229696
 30
0.0
 11
3766.826803324387
 21
3242.806616229696
 31
0.0
 12
3616.826803324387
 22
3242.806616229696
 32
0.0
 13
3616.826803324387
 23
3242.806616229696
 33
0.0
210
0.0
220
0.0
230
1.0
  0
SOLID
  5
6F1
330
6EC
100
AcDbEntity
  8
HATCH
  6
CONTINUOUS
 62
   251
100
AcDbTrace
 10
3766.826803324387
 20
3267.806616229695
 30
0.0
 11
3766.826803324387
 21
3242.806616229696
 31
0.0
 12
4416.826803324386
 22
2967.806616229696
 32
0.0
 13
4416.826803324386
 23
2967.806616229696
 33
0.0
210
0.0
220
0.0
230
1.0
  0
SOLID
  5
6F2
330
6EC
100
AcDbEntity
  8
HATCH
  6
CONTINUOUS
 62
   251
100
AcDbTrace
 10
4416.826803324386
 20
2967.806616229696
 30
0.0
 11
3816.826803324387
 21
3267.806616229695
 31
0.0
 12
3766.826803324387
 22
3267.806616229695
 32
0.0
 13
3766.826803324387
 23
3267.806616229695
 33
0.0
210
0.0
220
0.0
230
1.0
  0
SOLID
  5
6F3
330
6EC
100
AcDbEntity
  8
HATCH
  6
CONTINUOUS
 62
   251
100
AcDbTrace
 10
3816.826803324387
 20
3367.806616229696
 30
0.0
 11
3816.826803324387
 21
3267.806616229695
 31
0.0
 12
4416.826803324386
 22
2967.806616229696
 32
0.0
 13
4416.826803324386
 23
2967.806616229696
 33
0.0
210
0.0
220
0.0
230
1.0
  0
SOLID
  5
6F4
330
6EC
100
AcDbEntity
  8
HATCH
  6
CONTINUOUS
 62
   251
100
AcDbTrace
 10
3766.826803324387
 20
3392.806616229694
 30
0.0
 11
3766.826803324387
 21
3367.806616229696
 31
0.0
 12
3816.826803324387
 22
3367.806616229696
 32
0.0
 13
3816.826803324387
 23
3367.806616229696
 33
0.0
210
0.0
220
0.0
230
1.0
  0
SOLID
  5
6F5
330
6EC
100
AcDbEntity
  8
HATCH
  6
CONTINUOUS
 62
   251
100
AcDbTrace
 10
4416.826803324386
 20
3619.879161282769
 30
0.0
 11
3616.826803324387
 21
3392.806616229695
 31
0.0
 12
3766.826803324387
 22
3392.806616229694
 32
0.0
 13
3766.826803324387
 23
3392.806616229694
 33
0.0
210
0.0
220
0.0
230
1.0
  0
SOLID
  5
6F6
330
6EC
100
AcDbEntity
  8
HATCH
  6
CONTINUOUS
 62
   251
100
AcDbTrace
 10
4416.826803324386
 20
3619.879161282769
 30
0.0
 11
3766.826803324387
 21
3392.806616229694
 31
0.0
 12
3816.826803324387
 22
3367.806616229696
 32
0.0
 13
3816.826803324387
 23
3367.806616229696
 33
0.0
210
0.0
220
0.0
230
1.0
  0
SOLID
  5
6F7
330
6EC
100
AcDbEntity
  8
HATCH
  6
CONTINUOUS
 62
   251
100
AcDbTrace
 10
4416.826803324386
 20
3619.879161282769
 30
0.0
 11
3816.826803324387
 21
3367.806616229696
 31
0.0
 12
4416.826803324386
 22
2967.806616229696
 32
0.0
 13
4416.826803324386
 23
2967.806616229696
 33
0.0
210
0.0
220
0.0
230
1.0
  0
SOLID
  5
6F8
330
6EC
100
AcDbEntity
  8
HATCH
  6
CONTINUOUS
 62
   251
100
AcDbTrace
 10
4116.826803324387
 20
3619.879161282769
 30
0.0
 11
3616.826803324387
 21
3392.806616229695
 31
0.0
 12
4416.826803324386
 22
3619.879161282769
 32
0.0
 13
4416.826803324386
 23
3619.879161282769
 33
0.0
210
0.0
220
0.0
230
1.0
  0
SOLID
  5
6F9
330
6EC
100
AcDbEntity
  8
HATCH
  6
CONTINUOUS
 62
   251
100
AcDbTrace
 10
4108.111229049622
 20
3620.163573093432
 30
0.0
 11
3616.826803324387
 21
3392.806616229695
 31
0.0
 12
4116.826803324387
 22
3619.879161282769
 32
0.0
 13
4116.826803324387
 23
3619.879161282769
 33
0.0
  0
SOLID
  5
6FA
330
6EC
100
AcDbEntity
  8
HATCH
  6
CONTINUOUS
 62
   251
100
AcDbTrace
 10
4099.461985557694
 20
3621.014643979811
 30
0.0
 11
3616.826803324387
 21
3392.806616229695
 31
0.0
 12
4108.111229049622
 22
3620.163573093432
 32
0.0
 13
4108.111229049622
 23
3620.163573093432
 33
0.0
210
0.0
220
0.0
230
1.0
  0
SOLID
  5
6FB
330
6EC
100
AcDbEntity
  8
HATCH
  6
CONTINUOUS
 62
   251
100
AcDbTrace
 10
4090.944898814135
 20
3622.425896778569
 30
0.0
 11
3616.826803324387
 21
3392.806616229695
 31
0.0
 12
4099.461985557694
 22
3621.014643979811
 32
0.0
 13
4099.461985557694
 23
3621.014643979811
 33
0.0
210
0.0
220
0.0
230
1.0
  0
SOLID
  5
6FC
330
6EC
100
AcDbEntity
  8
HATCH
  6
CONTINUOUS
 62
   251
100
AcDbTrace
 10
4082.624788991821
 20
3624.386591003769
 30
0.0
 11
3616.826803324387
 21
3392.806616229695
 31
0.0
 12
4090.944898814135
 22
3622.425896778569
 32
0.0
 13
4090.944898814135
 23
3622.425896778569
 33
0.0
210
0.0
220
0.0
230
1.0
  0
SOLID
  5
6FD
330
6EC
100
AcDbEntity
  8
HATCH
  6
CONTINUOUS
 62
   251
100
AcDbTrace
 10
4074.564977150317
 20
3626.881804588459
 30
0.0
 11
3616.826803324387
 21
3392.806616229695
 31
0.0
 12
4082.624788991821
 22
3624.386591003769
 32
0.0
 13
4082.624788991821
 23
3624.386591003769
 33
0.0
  0
SOLID
  5
6FE
330
6EC
100
AcDbEntity
  8
HATCH
  6
CONTINUOUS
 62
   251
100
AcDbTrace
 10
4066.826803324388
 20
3629.892547450608
 30
0.0
 11
3616.826803324387
 21
3392.806616229695
 31
0.0
 12
4074.564977150317
 22
3626.881804588459
 32
0.0
 13
4074.564977150317
 23
3626.881804588459
 33
0.0
210
0.0
220
0.0
230
1.0
  0
SOLID
  5
6FF
330
6EC
100
AcDbEntity
  8
HATCH
  6
CONTINUOUS
 62
   251
100
AcDbTrace
 10
4059.469159689283
 20
3633.395906019099
 30
0.0
 11
3616.826803324387
 21
3392.806616229695
 31
0.0
 12
4066.826803324388
 22
3629.892547450608
 32
0.0
 13
4066.826803324388
 23
3629.892547450608
 33
0.0
210
0.0
220
0.0
230
1.0
  0
SOLID
  5
700
330
6EC
100
AcDbEntity
  8
HATCH
  6
CONTINUOUS
 62
   251
100
AcDbTrace
 10
4052.548042355733
 20
3637.365217619839
 30
0.0
 11
3616.826803324387
 21
3392.806616229695
 31
0.0
 12
4059.469159689283
 22
3633.395906019099
 32
0.0
 13
4059.469159689283
 23
3633.395906019099
 33
0.0
210
0.0
220
0.0
230
1.0
  0
SOLID
  5
701
330
6EC
100
AcDbEntity
  8
HATCH
  6
CONTINUOUS
 62
   251
100
AcDbTrace
 10
4046.116125205733
 20
3641.770273394812
 30
0.0
 11
3616.826803324387
 21
3392.806616229695
 31
0.0
 12
4052.548042355733
 22
3637.365217619839
 32
0.0
 13
4052.548042355733
 23
3637.365217619839
 33
0.0
210
0.0
220
0.0
230
1.0
  0
SOLID
  5
702
330
6EC
100
AcDbEntity
  8
HATCH
  6
CONTINUOUS
 62
   251
100
AcDbTrace
 10
4040.222359012489
 20
3646.577548209723
 30
0.0
 11
3616.826803324387
 21
3392.806616229695
 31
0.0
 12
4046.116125205733
 22
3641.770273394812
 32
0.0
 13
4046.116125205733
 23
3641.770273394812
 33
0.0
210
0.0
220
0.0
230
1.0
  0
SOLID
  5
703
330
6EC
100
AcDbEntity
  8
HATCH
  6
CONTINUOUS
 62
   251
100
AcDbTrace
 10
4034.911598895488
 20
3651.750455800521
 30
0.0
 11
3616.826803324387
 21
3392.806616229695
 31
0.0
 12
4040.222359012489
 22
3646.577548209723
 32
0.0
 13
4040.222359012489
 23
3646.577548209723
 33
0.0
210
0.0
220
0.0
230
1.0
  0
SOLID
  5
704
330
6EC
100
AcDbEntity
  8
HATCH
  6
CONTINUOUS
 62
   251
100
AcDbTrace
 10
4030.224262945943
 20
3657.249627216952
 30
0.0
 11
3616.826803324387
 21
3392.806616229695
 31
0.0
 12
4034.911598895488
 22
3651.750455800521
 32
0.0
 13
4034.911598895488
 23
3651.750455800521
 33
0.0
  0
SOLID
  5
705
330
6EC
100
AcDbEntity
  8
HATCH
  6
CONTINUOUS
 62
   251
100
AcDbTrace
 10
4026.196024620722
 20
3663.033210444046
 30
0.0
 11
3616.826803324387
 21
3392.806616229695
 31
0.0
 12
4030.224262945943
 22
3657.249627216952
 32
0.0
 13
4030.224262945943
 23
3657.249627216952
 33
0.0
210
0.0
220
0.0
230
1.0
  0
SOLID
  5
706
330
6EC
100
AcDbEntity
  8
HATCH
  6
CONTINUOUS
 62
   251
100
AcDbTrace
 10
4022.857541245797
 20
3669.057188921223
 30
0.0
 11
3616.826803324387
 21
3392.806616229695
 31
0.0
 12
4026.196024620722
 22
3663.033210444046
 32
0.0
 13
4026.196024620722
 23
3663.033210444046
 33
0.0
210
0.0
220
0.0
230
1.0
  0
SOLID
  5
707
330
6EC
100
AcDbEntity
  8
HATCH
  6
CONTINUOUS
 62
   251
100
AcDbTrace
 10
4020.23422069548
 20
3675.275716534892
 30
0.0
 11
3616.826803324387
 21
3392.806616229695
 31
0.0
 12
4022.857541245797
 22
3669.057188921223
 32
0.0
 13
4022.857541245797
 23
3669.057188921223
 33
0.0
210
0.0
220
0.0
230
1.0
  0
SOLID
  5
708
330
6EC
100
AcDbEntity
  8
HATCH
  6
CONTINUOUS
 62
   251
100
AcDbTrace
 10
4018.346028023166
 20
3681.641466535065
 30
0.0
 11
3616.826803324387
 21
3392.806616229695
 31
0.0
 12
4020.23422069548
 22
3675.275716534892
 32
0.0
 13
4020.23422069548
 23
3675.275716534892
 33
0.0
210
0.0
220
0.0
230
1.0
  0
SOLID
  5
709
330
6EC
100
AcDbEntity
  8
HATCH
  6
CONTINUOUS
 62
   251
100
AcDbTrace
 10
4017.207333515213
 20
3688.105991720496
 30
0.0
 11
3616.826803324387
 21
3392.806616229695
 31
0.0
 12
4018.346028023166
 22
3681.641466535065
 32
0.0
 13
4018.346028023166
 23
3681.641466535065
 33
0.0
210
0.0
220
0.0
230
1.0
  0
SOLID
  5
70A
330
6EC
100
AcDbEntity
  8
HATCH
  6
CONTINUOUS
 62
   251
100
AcDbTrace
 10
4016.826803324387
 20
3694.620093151137
 30
0.0
 11
3616.826803324387
 21
3392.806616229695
 31
0.0
 12
4017.207333515213
 22
3688.105991720496
 32
0.0
 13
4017.207333515213
 23
3688.105991720496
 33
0.0
210
0.0
220
0.0
230
1.0
  0
SOLID
  5
70B
330
6EC
100
AcDbEntity
  8
HATCH
  6
CONTINUOUS
 62
   251
100
AcDbTrace
 10
4016.826803324387
 20
3767.806616229694
 30
0.0
 11
3616.826803324387
 21
3392.806616229695
 31
0.0
 12
4016.826803324387
 22
3694.620093151137
 32
0.0
 13
4016.826803324387
 23
3694.620093151137
 33
0.0
210
0.0
220
0.0
230
1.0
  0
SOLID
  5
70C
330
6EC
100
AcDbEntity
  8
HATCH
  6
CONTINUOUS
 62
   251
100
AcDbTrace
 10
3616.826803324387
 20
3767.806616229695
 30
0.0
 11
3616.826803324387
 21
3392.806616229695
 31
0.0
 12
4016.826803324387
 22
3767.806616229694
 32
0.0
 13
4016.826803324387
 23
3767.806616229694
 33
0.0
210
0.0
220
0.0
230
1.0
  0
SOLID
  5
70D
330
6EC
100
AcDbEntity
  8
HATCH
  6
CONTINUOUS
 62
   251
100
AcDbTrace
 10
4416.826803324386
 20
2967.806616229696
 30
0.0
 11
3616.826803324387
 21
2967.806616229696
 31
0.0
 12
4416.826803324386
 22
2867.806616229696
 32
0.0
 13
4416.826803324386
 23
2867.806616229696
 33
0.0
  0
SOLID
  5
70E
330
6EC
100
AcDbEntity
  8
HATCH
  6
CONTINUOUS
 62
   251
100
AcDbTrace
 10
3616.826803324387
 20
2867.806616229696
 30
0.0
 11
4416.826803324386
 21
2867.806616229696
 31
0.0
 12
3616.826803324387
 22
2967.806616229696
 32
0.0
 13
3616.826803324387
 23
2967.806616229696
 33
0.0
  0
SOLID
  5
70F
330
6EC
100
AcDbEntity
  8
HATCH
  6
CONTINUOUS
 62
   251
100
AcDbTrace
 10
3616.826803324387
 20
2967.806616229695
 30
0.0
 11
3516.826803324387
 21
2967.806616229696
 31
0.0
 12
3616.826803324387
 22
2867.806616229696
 32
0.0
 13
3616.826803324387
 23
2867.806616229696
 33
0.0
210
0.0
220
0.0
230
1.0
  0
SOLID
  5
710
330
6EC
100
AcDbEntity
  8
HATCH
  6
CONTINUOUS
 62
   251
100
AcDbTrace
 10
3516.826803324387
 20
2867.806616229696
 30
0.0
 11
3616.826803324387
 21
2867.806616229696
 31
0.0
 12
3516.826803324387
 22
2967.806616229696
 32
0.0
 13
3516.826803324387
 23
2967.806616229696
 33
0.0
210
0.0
220
0.0
230
1.0
  0
SOLID
  5
711
330
6EC
100
AcDbEntity
  8
HATCH
  6
CONTINUOUS
 62
   251
100
AcDbTrace
 10
3616.826803324387
 20
3317.806616229695
 30
0.0
 11
3516.826803324387
 21
3317.806616229695
 31
0.0
 12
3616.826803324387
 22
2967.806616229696
 32
0.0
 13
3616.826803324387
 23
2967.806616229696
 33
0.0
210
0.0
220
0.0
230
1.0
  0
SOLID
  5
712
330
6EC
100
AcDbEntity
  8
HATCH
  6
CONTINUOUS
 62
   251
100
AcDbTrace
 10
3516.826803324387
 20
2967.806616229696
 30
0.0
 11
3616.826803324387
 21
2967.806616229696
 31
0.0
 12
3516.826803324387
 22
3317.806616229695
 32
0.0
 13
3516.826803324387
 23
3317.806616229695
 33
0.0
210
0.0
220
0.0
230
1.0
  0
SOLID
  5
713
330
6EC
100
AcDbEntity
  8
HATCH
  6
CONTINUOUS
 62
   251
100
AcDbTrace
 10
3616.826803324387
 20
3767.806616229695
 30
0.0
 11
3516.826803324387
 21
3767.806616229695
 31
0.0
 12
3616.826803324387
 22
3317.806616229694
 32
0.0
 13
3616.826803324387
 23
3317.806616229694
 33
0.0
210
0.0
220
0.0
230
1.0
  0
SOLID
  5
714
330
6EC
100
AcDbEntity
  8
HATCH
  6
CONTINUOUS
 62
   251
100
AcDbTrace
 10
3516.826803324386
 20
3317.806616229695
 30
0.0
 11
3616.826803324387
 21
3317.806616229694
 31
0.0
 12
3516.826803324387
 22
3767.806616229695
 32
0.0
 13
3516.826803324387
 23
3767.806616229695
 33
0.0
210
0.0
220
0.0
230
1.0
  0
SOLID
  5
715
330
6EC
100
AcDbEntity
  8
HATCH
  6
CONTINUOUS
 62
   251
100
AcDbTrace
 10
3616.826803324388
 20
4667.806616229696
 30
0.0
 11
3516.826803324387
 21
4667.806616229696
 31
0.0
 12
3616.826803324387
 22
3767.806616229695
 32
0.0
 13
3616.826803324387
 23
3767.806616229695
 33
0.0
  0
SOLID
  5
716
330
6EC
100
AcDbEntity
  8
HATCH
  6
CONTINUOUS
 62
   251
100
AcDbTrace
 10
3516.826803324387
 20
4217.806616229696
 30
0.0
 11
3616.826803324387
 21
3767.806616229695
 31
0.0
 12
3516.826803324387
 22
4667.806616229696
 32
0.0
 13
3516.826803324387
 23
4667.806616229696
 33
0.0
210
0.0
220
0.0
230
1.0
  0
SOLID
  5
717
330
6EC
100
AcDbEntity
  8
HATCH
  6
CONTINUOUS
 62
   251
100
AcDbTrace
 10
3616.826803324387
 20
3767.806616229695
 30
0.0
 11
3516.826803324387
 21
4217.806616229696
 31
0.0
 12
3516.826803324387
 22
3767.806616229695
 32
0.0
 13
3516.826803324387
 23
3767.806616229695
 33
0.0
210
0.0
220
0.0
230
1.0
  0
SOLID
  5
718
330
6EC
100
AcDbEntity
  8
HATCH
  6
CONTINUOUS
 62
   251
100
AcDbTrace
 10
6116.826803324387
 20
2967.806616229696
 30
0.0
 11
6116.826803324387
 21
3619.879161282769
 31
0.0
 12
5316.826803324388
 22
3619.879161282769
 32
0.0
 13
5316.826803324388
 23
3619.879161282769
 33
0.0
210
0.0
220
0.0
230
1.0
  0
SOLID
  5
719
330
6EC
100
AcDbEntity
  8
HATCH
  6
CONTINUOUS
 62
   251
100
AcDbTrace
 10
5316.826803324388
 20
3619.879161282769
 30
0.0
 11
5316.826803324387
 21
2967.806616229695
 31
0.0
 12
6116.826803324387
 22
2967.806616229696
 32
0.0
 13
6116.826803324387
 23
2967.806616229696
 33
0.0
210
0.0
220
0.0
230
1.0
  0
SOLID
  5
71A
330
6EC
100
AcDbEntity
  8
HATCH
  6
CONTINUOUS
 62
   251
100
AcDbTrace
 10
4016.826803324387
 20
4217.806616229696
 30
0.0
 11
3616.826803324387
 21
3767.806616229695
 31
0.0
 12
4016.826803324387
 22
3767.806616229695
 32
0.0
 13
4016.826803324387
 23
3767.806616229695
 33
0.0
  0
SOLID
  5
71B
330
6EC
100
AcDbEntity
  8
HATCH
  6
CONTINUOUS
 62
   251
100
AcDbTrace
 10
3616.826803324387
 20
4667.806616229696
 30
0.0
 11
3616.826803324387
 21
3767.806616229695
 31
0.0
 12
4016.826803324387
 22
4217.806616229696
 32
0.0
 13
4016.826803324387
 23
4217.806616229696
 33
0.0
210
0.0
220
0.0
230
1.0
  0
SOLID
  5
71C
330
6EC
100
AcDbEntity
  8
HATCH
  6
CONTINUOUS
 62
   251
100
AcDbTrace
 10
4016.826803324387
 20
4667.806616229696
 30
0.0
 11
3616.826803324387
 21
4667.806616229696
 31
0.0
 12
4016.826803324387
 22
4217.806616229696
 32
0.0
 13
4016.826803324387
 23
4217.806616229696
 33
0.0
210
0.0
220
0.0
230
1.0
  0
SOLID
  5
71D
330
6EC
100
AcDbEntity
  8
HATCH
  6
CONTINUOUS
 62
   251
100
AcDbTrace
 10
6216.826803324388
 20
3619.879161282769
 30
0.0
 11
6116.826803324387
 21
3619.879161282769
 31
0.0
 12
6216.826803324387
 22
2967.806616229696
 32
0.0
 13
6216.826803324387
 23
2967.806616229696
 33
0.0
210
0.0
220
0.0
230
1.0
  0
SOLID
  5
71E
330
6EC
100
AcDbEntity
  8
HATCH
  6
CONTINUOUS
 62
   251
100
AcDbTrace
 10
6116.826803324387
 20
2967.806616229696
 30
0.0
 11
6216.826803324387
 21
2967.806616229696
 31
0.0
 12
6116.826803324387
 22
3619.879161282769
 32
0.0
 13
6116.826803324387
 23
3619.879161282769
 33
0.0
210
0.0
220
0.0
230
1.0
  0
SOLID
  5
71F
330
6EC
100
AcDbEntity
  8
HATCH
  6
CONTINUOUS
 62
   251
100
AcDbTrace
 10
6216.826803324388
 20
2967.806616229696
 30
0.0
 11
6116.826803324387
 21
2967.806616229696
 31
0.0
 12
6216.826803324387
 22
2867.806616229696
 32
0.0
 13
6216.826803324387
 23
2867.806616229696
 33
0.0
210
0.0
220
0.0
230
1.0
  0
SOLID
  5
720
330
6EC
100
AcDbEntity
  8
HATCH
  6
CONTINUOUS
 62
   251
100
AcDbTrace
 10
6116.826803324388
 20
2867.806616229696
 30
0.0
 11
6216.826803324387
 21
2867.806616229696
 31
0.0
 12
6116.826803324387
 22
2967.806616229696
 32
0.0
 13
6116.826803324387
 23
2967.806616229696
 33
0.0
210
0.0
220
0.0
230
1.0
  0
SOLID
  5
721
330
6EC
100
AcDbEntity
  8
HATCH
  6
CONTINUOUS
 62
   251
100
AcDbTrace
 10
6116.826803324387
 20
2967.806616229696
 30
0.0
 11
5316.826803324388
 21
2967.806616229696
 31
0.0
 12
6116.826803324387
 22
2867.806616229695
 32
0.0
 13
6116.826803324387
 23
2867.806616229695
 33
0.0
210
0.0
220
0.0
230
1.0
  0
SOLID
  5
722
330
6EC
100
AcDbEntity
  8
HATCH
  6
CONTINUOUS
 62
   251
100
AcDbTrace
 10
5316.826803324389
 20
2867.806616229696
 30
0.0
 11
6116.826803324387
 21
2867.806616229695
 31
0.0
 12
5316.826803324388
 22
2967.806616229696
 32
0.0
 13
5316.826803324388
 23
2967.806616229696
 33
0.0
  0
SOLID
  5
723
330
6EC
100
AcDbEntity
  8
HATCH
  6
CONTINUOUS
 62
   251
100
AcDbTrace
 10
5316.826803324387
 20
2967.806616229696
 30
0.0
 11
4416.826803324386
 21
2967.806616229696
 31
0.0
 12
5316.826803324388
 22
2867.806616229696
 32
0.0
 13
5316.826803324388
 23
2867.806616229696
 33
0.0
210
0.0
220
0.0
230
1.0
  0
SOLID
  5
724
330
6EC
100
AcDbEntity
  8
HATCH
  6
CONTINUOUS
 62
   251
100
AcDbTrace
 10
4416.826803324386
 20
2867.806616229696
 30
0.0
 11
5316.826803324388
 21
2867.806616229696
 31
0.0
 12
4416.826803324386
 22
2967.806616229696
 32
0.0
 13
4416.826803324386
 23
2967.806616229696
 33
0.0
210
0.0
220
0.0
230
1.0
  0
SOLID
  5
725
330
6EC
100
AcDbEntity
  8
HATCH
  6
CONTINUOUS
 62
   251
100
AcDbTrace
 10
5416.826803324385
 20
2067.806616229695
 30
0.0
 11
5316.826803324388
 21
1967.806616229696
 31
0.0
 12
6216.826803324387
 22
1967.806616229696
 32
0.0
 13
6216.826803324387
 23
1967.806616229696
 33
0.0
210
0.0
220
0.0
230
1.0
  0
SOLID
  5
726
330
6EC
100
AcDbEntity
  8
HATCH
  6
CONTINUOUS
 62
   251
100
AcDbTrace
 10
6116.826803324388
 20
2067.806616229696
 30
0.0
 11
5416.826803324385
 21
2067.806616229695
 31
0.0
 12
6216.826803324387
 22
1967.806616229696
 32
0.0
 13
6216.826803324387
 23
1967.806616229696
 33
0.0
210
0.0
220
0.0
230
1.0
  0
SOLID
  5
727
330
6EC
100
AcDbEntity
  8
HATCH
  6
CONTINUOUS
 62
   251
100
AcDbTrace
 10
5416.826803324385
 20
2067.806616229695
 30
0.0
 11
5416.826803324386
 21
2867.806616229696
 31
0.0
 12
5316.826803324388
 22
2867.806616229696
 32
0.0
 13
5316.826803324388
 23
2867.806616229696
 33
0.0
210
0.0
220
0.0
230
1.0
  0
SOLID
  5
728
330
6EC
100
AcDbEntity
  8
HATCH
  6
CONTINUOUS
 62
   251
100
AcDbTrace
 10
5316.826803324388
 20
2867.806616229696
 30
0.0
 11
5316.826803324388
 21
1967.806616229696
 31
0.0
 12
5416.826803324385
 22
2067.806616229695
 32
0.0
 13
5416.826803324385
 23
2067.806616229695
 33
0.0
210
0.0
220
0.0
230
1.0
  0
SOLID
  5
729
330
6EC
100
AcDbEntity
  8
HATCH
  6
CONTINUOUS
 62
   251
100
AcDbTrace
 10
6116.826803324388
 20
2067.806616229696
 30
0.0
 11
6216.826803324387
 21
2867.806616229696
 31
0.0
 12
6116.826803324388
 22
2867.806616229696
 32
0.0
 13
6116.826803324388
 23
2867.806616229696
 33
0.0
  0
SOLID
  5
72A
330
6EC
100
AcDbEntity
  8
HATCH
  6
CONTINUOUS
 62
   251
100
AcDbTrace
 10
6216.826803324387
 20
2867.806616229696
 30
0.0
 11
6116.826803324388
 21
2067.806616229696
 31
0.0
 12
6216.826803324387
 22
1967.806616229696
 32
0.0
 13
6216.826803324387
 23
1967.806616229696
 33
0.0
210
0.0
220
0.0
230
1.0
  0
SOLID
  5
72B
330
6EC
100
AcDbEntity
  8
HATCH
  6
CONTINUOUS
 62
   251
100
AcDbTrace
 10
5766.826803324388
 20
2117.806616229696
 30
0.0
 11
5416.826803324386
 21
2067.806616229696
 31
0.0
 12
6116.826803324388
 22
2067.806616229696
 32
0.0
 13
6116.826803324388
 23
2067.806616229696
 33
0.0
210
0.0
220
0.0
230
1.0
  0
SOLID
  5
72C
330
6EC
100
AcDbEntity
  8
HATCH
  6
CONTINUOUS
 62
   251
100
AcDbTrace
 10
5416.826803324386
 20
2067.806616229696
 30
0.0
 11
5766.826803324388
 21
2117.806616229696
 31
0.0
 12
5516.826803324388
 22
2117.806616229696
 32
0.0
 13
5516.826803324388
 23
2117.806616229696
 33
0.0
210
0.0
220
0.0
230
1.0
  0
SOLID
  5
72D
330
6EC
100
AcDbEntity
  8
HATCH
  6
CONTINUOUS
 62
   251
100
AcDbTrace
 10
5746.826803324387
 20
2137.806616229696
 30
0.0
 11
5746.826803324387
 21
2697.806616229696
 31
0.0
 12
5536.826803324387
 22
2697.806616229696
 32
0.0
 13
5536.826803324387
 23
2697.806616229696
 33
0.0
210
0.0
220
0.0
230
1.0
  0
SOLID
  5
72E
330
6EC
100
AcDbEntity
  8
HATCH
  6
CONTINUOUS
 62
   251
100
AcDbTrace
 10
5536.826803324387
 20
2697.806616229696
 30
0.0
 11
5536.826803324387
 21
2137.806616229696
 31
0.0
 12
5746.826803324387
 22
2137.806616229696
 32
0.0
 13
5746.826803324387
 23
2137.806616229696
 33
0.0
210
0.0
220
0.0
230
1.0
  0
SOLID
  5
72F
330
6EC
100
AcDbEntity
  8
HATCH
  6
CONTINUOUS
 62
   251
100
AcDbTrace
 10
5516.826803324388
 20
2717.806616229696
 30
0.0
 11
5416.826803324386
 21
2067.806616229696
 31
0.0
 12
5516.826803324388
 22
2117.806616229696
 32
0.0
 13
5516.826803324388
 23
2117.806616229696
 33
0.0
  0
SOLID
  5
730
330
6EC
100
AcDbEntity
  8
HATCH
  6
CONTINUOUS
 62
   251
100
AcDbTrace
 10
5766.826803324388
 20
2717.806616229696
 30
0.0
 11
5766.826803324388
 21
2117.806616229696
 31
0.0
 12
6116.826803324388
 22
2067.806616229696
 32
0.0
 13
6116.826803324388
 23
2067.806616229696
 33
0.0
210
0.0
220
0.0
230
1.0
  0
SOLID
  5
731
330
6EC
100
AcDbEntity
  8
HATCH
  6
CONTINUOUS
 62
   251
100
AcDbTrace
 10
6116.826803324387
 20
2867.806616229696
 30
0.0
 11
5516.826803324388
 21
2717.806616229696
 31
0.0
 12
5766.826803324388
 22
2717.806616229696
 32
0.0
 13
5766.826803324388
 23
2717.806616229696
 33
0.0
210
0.0
220
0.0
230
1.0
  0
SOLID
  5
732
330
6EC
100
AcDbEntity
  8
HATCH
  6
CONTINUOUS
 62
   251
100
AcDbTrace
 10
6116.826803324387
 20
2867.806616229696
 30
0.0
 11
5766.826803324388
 21
2717.806616229696
 31
0.0
 12
6116.826803324388
 22
2067.806616229696
 32
0.0
 13
6116.826803324388
 23
2067.806616229696
 33
0.0
210
0.0
220
0.0
230
1.0
  0
SOLID
  5
733
330
6EC
100
AcDbEntity
  8
HATCH
  6
CONTINUOUS
 62
   251
100
AcDbTrace
 10
5416.826803324386
 20
2867.806616229696
 30
0.0
 11
5516.826803324388
 21
2717.806616229696
 31
0.0
 12
6116.826803324387
 22
2867.806616229696
 32
0.0
 13
6116.826803324387
 23
2867.806616229696
 33
0.0
210
0.0
220
0.0
230
1.0
  0
SOLID
  5
734
330
6EC
100
AcDbEntity
  8
HATCH
  6
CONTINUOUS
 62
   251
100
AcDbTrace
 10
5416.826803324386
 20
2867.806616229696
 30
0.0
 11
5416.826803324386
 21
2067.806616229696
 31
0.0
 12
5516.826803324388
 22
2717.806616229696
 32
0.0
 13
5516.826803324388
 23
2717.806616229696
 33
0.0
210
0.0
220
0.0
230
1.0
  0
ENDBLK
  5
736
330
6EC
100
AcDbEntity
  8
0
100
AcDbBlockEnd
  0
BLOCK
  5
740
330
737
100
AcDbEntity
  8
0
100
AcDbBlockBegin
  2
*U2
 70
     1
 10
0.0
 20
0.0
 30
0.0
  3
*U2
  1

  0
SOLID
  5
738
330
737
100
AcDbEntity
  8
HATCH
  6
CONTINUOUS
 62
     3
100
AcDbTrace
 10
5746.826803324387
 20
2137.806616229696
 30
0.0
 11
5516.826803324388
 21
2117.806616229696
 31
0.0
 12
5766.826803324388
 22
2117.806616229696
 32
0.0
 13
5766.826803324388
 23
2117.806616229696
 33
0.0
210
0.0
220
0.0
230
1.0
  0
SOLID
  5
739
330
737
100
AcDbEntity
  8
HATCH
  6
CONTINUOUS
 62
     3
100
AcDbTrace
 10
5516.826803324388
 20
2117.806616229696
 30
0.0
 11
5746.826803324387
 21
2137.806616229696
 31
0.0
 12
5536.826803324387
 22
2137.806616229696
 32
0.0
 13
5536.826803324387
 23
2137.806616229696
 33
0.0
210
0.0
220
0.0
230
1.0
  0
SOLID
  5
73A
330
737
100
AcDbEntity
  8
HATCH
  6
CONTINUOUS
 62
     3
100
AcDbTrace
 10
5536.826803324387
 20
2697.806616229695
 30
0.0
 11
5516.826803324388
 21
2117.806616229696
 31
0.0
 12
5536.826803324387
 22
2137.806616229696
 32
0.0
 13
5536.826803324387
 23
2137.806616229696
 33
0.0
210
0.0
220
0.0
230
1.0
  0
SOLID
  5
73B
330
737
100
AcDbEntity
  8
HATCH
  6
CONTINUOUS
 62
     3
100
AcDbTrace
 10
5746.826803324387
 20
2697.806616229696
 30
0.0
 11
5746.826803324387
 21
2137.806616229696
 31
0.0
 12
5766.826803324388
 22
2117.806616229696
 32
0.0
 13
5766.826803324388
 23
2117.806616229696
 33
0.0
210
0.0
220
0.0
230
1.0
  0
SOLID
  5
73C
330
737
100
AcDbEntity
  8
HATCH
  6
CONTINUOUS
 62
     3
100
AcDbTrace
 10
5516.826803324388
 20
2717.806616229696
 30
0.0
 11
5536.826803324387
 21
2697.806616229695
 31
0.0
 12
5746.826803324387
 22
2697.806616229696
 32
0.0
 13
5746.826803324387
 23
2697.806616229696
 33
0.0
210
0.0
220
0.0
230
1.0
  0
SOLID
  5
73D
330
737
100
AcDbEntity
  8
HATCH
  6
CONTINUOUS
 62
     3
100
AcDbTrace
 10
5516.826803324388
 20
2717.806616229696
 30
0.0
 11
5516.826803324388
 21
2117.806616229696
 31
0.0
 12
5536.826803324387
 22
2697.806616229695
 32
0.0
 13
5536.826803324387
 23
2697.806616229695
 33
0.0
  0
SOLID
  5
73E
330
737
100
AcDbEntity
  8
HATCH
  6
CONTINUOUS
 62
     3
100
AcDbTrace
 10
5746.826803324387
 20
2697.806616229696
 30
0.0
 11
5766.826803324388
 21
2717.806616229696
 31
0.0
 12
5516.826803324388
 22
2717.806616229696
 32
0.0
 13
5516.826803324388
 23
2717.806616229696
 33
0.0
210
0.0
220
0.0
230
1.0
  0
SOLID
  5
73F
330
737
100
AcDbEntity
  8
HATCH
  6
CONTINUOUS
 62
     3
100
AcDbTrace
 10
5766.826803324388
 20
2717.806616229696
 30
0.0
 11
5746.826803324387
 21
2697.806616229696
 31
0.0
 12
5766.826803324388
 22
2117.806616229696
 32
0.0
 13
5766.826803324388
 23
2117.806616229696
 33
0.0
210
0.0
220
0.0
230
1.0
  0
ENDBLK
  5
741
330
737
100
AcDbEntity
  8
0
100
AcDbBlockEnd
  0
BLOCK
  5
751
330
742
100
AcDbEntity
  8
0
100
AcDbBlockBegin
  2
*U3
 70
     1
 10
0.0
 20
0.0
 30
0.0
  3
*U3
  1

  0
SOLID
  5
743
330
742
100
AcDbEntity
  8
HATCH
  6
CONTINUOUS
 62
     1
100
AcDbTrace
 10
1741.826803324386
 20
2987.806616229695
 30
0.0
 11
1616.826803324386
 21
2967.806616229696
 31
0.0
 12
1741.826803324387
 22
2967.806616229696
 32
0.0
 13
1741.826803324387
 23
2967.806616229696
 33
0.0
210
0.0
220
0.0
230
1.0
  0
SOLID
  5
744
330
742
100
AcDbEntity
  8
HATCH
  6
CONTINUOUS
 62
     1
100
AcDbTrace
 10
1636.826803324386
 20
2987.806616229697
 30
0.0
 11
1616.826803324386
 21
2967.806616229696
 31
0.0
 12
1741.826803324386
 22
2987.806616229695
 32
0.0
 13
1741.826803324386
 23
2987.806616229695
 33
0.0
210
0.0
220
0.0
230
1.0
  0
SOLID
  5
745
330
742
100
AcDbEntity
  8
HATCH
  6
CONTINUOUS
 62
     1
100
AcDbTrace
 10
1636.826803324385
 20
3647.806616229696
 30
0.0
 11
1616.826803324386
 21
2967.806616229696
 31
0.0
 12
1636.826803324386
 22
2987.806616229697
 32
0.0
 13
1636.826803324386
 23
2987.806616229697
 33
0.0
210
0.0
220
0.0
230
1.0
  0
SOLID
  5
746
330
742
100
AcDbEntity
  8
HATCH
  6
CONTINUOUS
 62
     1
100
AcDbTrace
 10
2066.826803324385
 20
3667.806616229694
 30
0.0
 11
1636.826803324385
 21
3647.806616229696
 31
0.0
 12
2066.826803324385
 22
3647.806616229696
 32
0.0
 13
2066.826803324385
 23
3647.806616229696
 33
0.0
210
0.0
220
0.0
230
1.0
  0
SOLID
  5
747
330
742
100
AcDbEntity
  8
HATCH
  6
CONTINUOUS
 62
     1
100
AcDbTrace
 10
1616.826803324387
 20
3667.806616229695
 30
0.0
 11
1636.826803324385
 21
3647.806616229696
 31
0.0
 12
2066.826803324385
 22
3667.806616229694
 32
0.0
 13
2066.826803324385
 23
3667.806616229694
 33
0.0
210
0.0
220
0.0
230
1.0
  0
SOLID
  5
748
330
742
100
AcDbEntity
  8
HATCH
  6
CONTINUOUS
 62
     1
100
AcDbTrace
 10
1616.826803324387
 20
3667.806616229695
 30
0.0
 11
1616.826803324386
 21
2967.806616229696
 31
0.0
 12
1636.826803324385
 22
3647.806616229696
 32
0.0
 13
1636.826803324385
 23
3647.806616229696
 33
0.0
210
0.0
220
0.0
230
1.0
  0
SOLID
  5
749
330
742
100
AcDbEntity
  8
HATCH
  6
CONTINUOUS
 62
     1
100
AcDbTrace
 10
2066.826803324384
 20
2987.806616229694
 30
0.0
 11
2066.826803324385
 21
2967.806616229695
 31
0.0
 12
2316.826803324385
 22
2967.806616229696
 32
0.0
 13
2316.826803324385
 23
2967.806616229696
 33
0.0
210
0.0
220
0.0
230
1.0
  0
SOLID
  5
74A
330
742
100
AcDbEntity
  8
HATCH
  6
CONTINUOUS
 62
     1
100
AcDbTrace
 10
2296.826803324385
 20
2987.806616229695
 30
0.0
 11
2066.826803324384
 21
2987.806616229694
 31
0.0
 12
2316.826803324385
 22
2967.806616229696
 32
0.0
 13
2316.826803324385
 23
2967.806616229696
 33
0.0
210
0.0
220
0.0
230
1.0
  0
SOLID
  5
74B
330
742
100
AcDbEntity
  8
HATCH
  6
CONTINUOUS
 62
     1
100
AcDbTrace
 10
2296.826803324385
 20
3647.806616229696
 30
0.0
 11
2296.826803324385
 21
2987.806616229695
 31
0.0
 12
2316.826803324385
 22
2967.806616229696
 32
0.0
 13
2316.826803324385
 23
2967.806616229696
 33
0.0
210
0.0
220
0.0
230
1.0
  0
SOLID
  5
74C
330
742
100
AcDbEntity
  8
HATCH
  6
CONTINUOUS
 62
     1
100
AcDbTrace
 10
2066.826803324384
 20
3667.806616229694
 30
0.0
 11
2066.826803324384
 21
3647.806616229696
 31
0.0
 12
2296.826803324385
 22
3647.806616229696
 32
0.0
 13
2296.826803324385
 23
3647.806616229696
 33
0.0
210
0.0
220
0.0
230
1.0
  0
SOLID
  5
74D
330
742
100
AcDbEntity
  8
HATCH
  6
CONTINUOUS
 62
     1
100
AcDbTrace
 10
2316.826803324385
 20
3667.806616229694
 30
0.0
 11
2066.826803324384
 21
3667.806616229694
 31
0.0
 12
2296.826803324385
 22
3647.806616229696
 32
0.0
 13
2296.826803324385
 23
3647.806616229696
 33
0.0
210
0.0
220
0.0
230
1.0
  0
SOLID
  5
74E
330
742
100
AcDbEntity
  8
HATCH
  6
CONTINUOUS
 62
     1
100
AcDbTrace
 10
2316.826803324385
 20
3667.806616229694
 30
0.0
 11
2296.826803324385
 21
3647.806616229696
 31
0.0
 12
2316.826803324385
 22
2967.806616229696
 32
0.0
 13
2316.826803324385
 23
2967.806616229696
 33
0.0
210
0.0
220
0.0
230
1.0
  0
SOLID
  5
74F
330
742
100
AcDbEntity
  8
HATCH
  6
CONTINUOUS
 62
     1
100
AcDbTrace
 10
2066.826803324384
 20
2987.806616229696
 30
0.0
 11
1741.826803324386
 21
2987.806616229696
 31
0.0
 12
2066.826803324384
 22
2967.806616229696
 32
0.0
 13
2066.826803324384
 23
2967.806616229696
 33
0.0
210
0.0
220
0.0
230
1.0
  0
SOLID
  5
750
330
742
100
AcDbEntity
  8
HATCH
  6
CONTINUOUS
 62
     1
100
AcDbTrace
 10
1741.826803324386
 20
2967.806616229696
 30
0.0
 11
2066.826803324384
 21
2967.806616229696
 31
0.0
 12
1741.826803324386
 22
2987.806616229696
 32
0.0
 13
1741.826803324386
 23
2987.806616229696
 33
0.0
210
0.0
220
0.0
230
1.0
  0
ENDBLK
  5
752
330
742
100
AcDbEntity
  8
0
100
AcDbBlockEnd
  0
BLOCK
  5
75E
330
753
100
AcDbEntity
  8
0
100
AcDbBlockBegin
  2
*U4
 70
     1
 10
0.0
 20
0.0
 30
0.0
  3
*U4
  1

  0
SOLID
  5
754
330
753
100
AcDbEntity
  8
HATCH
  6
CONTINUOUS
 62
     1
100
AcDbTrace
 10
1741.826803324386
 20
3007.806616229696
 30
0.0
 11
1636.826803324386
 21
2987.806616229696
 31
0.0
 12
1741.826803324386
 22
2987.806616229695
 32
0.0
 13
1741.826803324386
 23
2987.806616229695
 33
0.0
210
0.0
220
0.0
230
1.0
  0
SOLID
  5
755
330
753
100
AcDbEntity
  8
HATCH
  6
CONTINUOUS
 62
     1
100
AcDbTrace
 10
2066.826803324384
 20
3007.806616229696
 30
0.0
 11
2066.826803324384
 21
2987.806616229695
 31
0.0
 12
2296.826803324385
 22
2987.806616229696
 32
0.0
 13
2296.826803324385
 23
2987.806616229696
 33
0.0
210
0.0
220
0.0
230
1.0
  0
SOLID
  5
756
330
753
100
AcDbEntity
  8
HATCH
  6
CONTINUOUS
 62
     1
100
AcDbTrace
 10
1741.826803324386
 20
3627.806616229696
 30
0.0
 11
1741.826803324386
 21
3007.806616229696
 31
0.0
 12
2066.826803324384
 22
3007.806616229696
 32
0.0
 13
2066.826803324384
 23
3007.806616229696
 33
0.0
210
0.0
220
0.0
230
1.0
  0
SOLID
  5
757
330
753
100
AcDbEntity
  8
HATCH
  6
CONTINUOUS
 62
     1
100
AcDbTrace
 10
1741.826803324386
 20
3627.806616229696
 30
0.0
 11
2066.826803324384
 21
3007.806616229696
 31
0.0
 12
2296.826803324385
 22
2987.806616229696
 32
0.0
 13
2296.826803324385
 23
2987.806616229696
 33
0.0
210
0.0
220
0.0
230
1.0
  0
SOLID
  5
758
330
753
100
AcDbEntity
  8
HATCH
  6
CONTINUOUS
 62
     1
100
AcDbTrace
 10
1741.826803324386
 20
3627.806616229696
 30
0.0
 11
1636.826803324386
 21
2987.806616229696
 31
0.0
 12
1741.826803324386
 22
3007.806616229696
 32
0.0
 13
1741.826803324386
 23
3007.806616229696
 33
0.0
  0
SOLID
  5
759
330
753
100
AcDbEntity
  8
HATCH
  6
CONTINUOUS
 62
     1
100
AcDbTrace
 10
2066.826803324384
 20
3627.806616229696
 30
0.0
 11
1741.826803324386
 21
3627.806616229696
 31
0.0
 12
2296.826803324385
 22
2987.806616229696
 32
0.0
 13
2296.826803324385
 23
2987.806616229696
 33
0.0
210
0.0
220
0.0
230
1.0
  0
SOLID
  5
75A
330
753
100
AcDbEntity
  8
HATCH
  6
CONTINUOUS
 62
     1
100
AcDbTrace
 10
1636.826803324386
 20
3647.806616229695
 30
0.0
 11
1636.826803324386
 21
2987.806616229696
 31
0.0
 12
1741.826803324386
 22
3627.806616229696
 32
0.0
 13
1741.826803324386
 23
3627.806616229696
 33
0.0
210
0.0
220
0.0
230
1.0
  0
SOLID
  5
75B
330
753
100
AcDbEntity
  8
HATCH
  6
CONTINUOUS
 62
     1
100
AcDbTrace
 10
2066.826803324384
 20
3627.806616229696
 30
0.0
 11
2296.826803324385
 21
3647.806616229696
 31
0.0
 12
2066.826803324385
 22
3647.806616229696
 32
0.0
 13
2066.826803324385
 23
3647.806616229696
 33
0.0
210
0.0
220
0.0
230
1.0
  0
SOLID
  5
75C
330
753
100
AcDbEntity
  8
HATCH
  6
CONTINUOUS
 62
     1
100
AcDbTrace
 10
2296.826803324385
 20
3647.806616229696
 30
0.0
 11
2066.826803324384
 21
3627.806616229696
 31
0.0
 12
2296.826803324385
 22
2987.806616229696
 32
0.0
 13
2296.826803324385
 23
2987.806616229696
 33
0.0
210
0.0
220
0.0
230
1.0
  0
SOLID
  5
75D
330
753
100
AcDbEntity
  8
HATCH
  6
CONTINUOUS
 62
     1
100
AcDbTrace
 10
1741.826803324387
 20
3647.806616229696
 30
0.0
 11
1636.826803324386
 21
3647.806616229695
 31
0.0
 12
1741.826803324386
 22
3627.806616229696
 32
0.0
 13
1741.826803324386
 23
3627.806616229696
 33
0.0
210
0.0
220
0.0
230
1.0
  0
ENDBLK
  5
75F
330
753
100
AcDbEntity
  8
0
100
AcDbBlockEnd
  0
BLOCK
  5
766
330
760
100
AcDbEntity
  8
0
100
AcDbBlockBegin
  2
*U5
 70
     1
 10
0.0
 20
0.0
 30
0.0
  3
*U5
  1

  0
SOLID
  5
761
330
760
100
AcDbEntity
  8
HATCH
  6
CONTINUOUS
 62
     2
100
AcDbTrace
 10
2066.826803324385
 20
2987.806616229696
 30
0.0
 11
2066.826803324384
 21
3007.806616229696
 31
0.0
 12
1741.826803324386
 22
3007.806616229696
 32
0.0
 13
1741.826803324386
 23
3007.806616229696
 33
0.0
210
0.0
220
0.0
230
1.0
  0
SOLID
  5
762
330
760
100
AcDbEntity
  8
HATCH
  6
CONTINUOUS
 62
     2
100
AcDbTrace
 10
1741.826803324386
 20
3007.806616229696
 30
0.0
 11
1741.826803324386
 21
2987.806616229695
 31
0.0
 12
2066.826803324385
 22
2987.806616229696
 32
0.0
 13
2066.826803324385
 23
2987.806616229696
 33
0.0
210
0.0
220
0.0
230
1.0
  0
SOLID
  5
763
330
760
100
AcDbEntity
  8
HATCH
  6
CONTINUOUS
 62
     2
100
AcDbTrace
 10
2066.826803324385
 20
3627.806616229696
 30
0.0
 11
2066.826803324385
 21
3647.806616229696
 31
0.0
 12
1744.956199221235
 22
3647.806616229696
 32
0.0
 13
1744.956199221235
 23
3647.806616229696
 33
0.0
210
0.0
220
0.0
230
1.0
  0
SOLID
  5
764
330
760
100
AcDbEntity
  8
HATCH
  6
CONTINUOUS
 62
     2
100
AcDbTrace
 10
2066.826803324385
 20
3627.806616229696
 30
0.0
 11
1744.956199221235
 21
3647.806616229696
 31
0.0
 12
1741.826803324387
 22
3647.806616229696
 32
0.0
 13
1741.826803324387
 23
3647.806616229696
 33
0.0
210
0.0
220
0.0
230
1.0
  0
SOLID
  5
765
330
760
100
AcDbEntity
  8
HATCH
  6
CONTINUOUS
 62
     2
100
AcDbTrace
 10
1741.826803324387
 20
3647.806616229696
 30
0.0
 11
1741.826803324386
 21
3627.806616229696
 31
0.0
 12
2066.826803324385
 22
3627.806616229696
 32
0.0
 13
2066.826803324385
 23
3627.806616229696
 33
0.0
210
0.0
220
0.0
230
1.0
  0
ENDBLK
  5
767
330
760
100
AcDbEntity
  8
0
100
AcDbBlockEnd
  0
BLOCK
  5
776
330
768
100
AcDbEntity
  8
0
100
AcDbBlockBegin
  2
*U6
 70
     1
 10
0.0
 20
0.0
 30
0.0
  3
*U6
  1

  0
SOLID
  5
769
330
768
100
AcDbEntity
  8
HATCH
  6
CONTINUOUS
 62
     2
100
AcDbTrace
 10
1816.826803324387
 20
2952.806616229695
 30
0.0
 11
1801.826803324387
 21
2887.806616229696
 31
0.0
 12
1816.826803324387
 22
2887.806616229696
 32
0.0
 13
1816.826803324387
 23
2887.806616229696
 33
0.0
  0
SOLID
  5
76A
330
768
100
AcDbEntity
  8
HATCH
  6
CONTINUOUS
 62
     2
100
AcDbTrace
 10
1816.826803324387
 20
2952.806616229695
 30
0.0
 11
1786.826803324387
 21
2887.806616229696
 31
0.0
 12
1801.826803324387
 22
2887.806616229696
 32
0.0
 13
1801.826803324387
 23
2887.806616229696
 33
0.0
210
0.0
220
0.0
230
1.0
  0
SOLID
  5
76B
330
768
100
AcDbEntity
  8
HATCH
  6
CONTINUOUS
 62
     2
100
AcDbTrace
 10
1786.826803324387
 20
2952.806616229695
 30
0.0
 11
1786.826803324387
 21
2887.806616229696
 31
0.0
 12
1816.826803324387
 22
2952.806616229695
 32
0.0
 13
1816.826803324387
 23
2952.806616229695
 33
0.0
210
0.0
220
0.0
230
1.0
  0
SOLID
  5
76C
330
768
100
AcDbEntity
  8
HATCH
  6
CONTINUOUS
 62
     2
100
AcDbTrace
 10
1819.755735512521
 20
2959.877684041561
 30
0.0
 11
1786.826803324387
 21
2952.806616229695
 31
0.0
 12
1816.826803324387
 22
2952.806616229695
 32
0.0
 13
1816.826803324387
 23
2952.806616229695
 33
0.0
  0
SOLID
  5
76D
330
768
100
AcDbEntity
  8
HATCH
  6
CONTINUOUS
 62
     2
100
AcDbTrace
 10
1783.897871136252
 20
2959.877684041561
 30
0.0
 11
1786.826803324387
 21
2952.806616229695
 31
0.0
 12
1819.755735512521
 22
2959.877684041561
 32
0.0
 13
1819.755735512521
 23
2959.877684041561
 33
0.0
210
0.0
220
0.0
230
1.0
  0
SOLID
  5
76E
330
768
100
AcDbEntity
  8
HATCH
  6
CONTINUOUS
 62
     2
100
AcDbTrace
 10
1783.897871136252
 20
2959.877684041561
 30
0.0
 11
1826.826803324387
 21
2962.806616229696
 31
0.0
 12
1776.826803324387
 22
2962.806616229696
 32
0.0
 13
1776.826803324387
 23
2962.806616229696
 33
0.0
210
0.0
220
0.0
230
1.0
  0
SOLID
  5
76F
330
768
100
AcDbEntity
  8
HATCH
  6
CONTINUOUS
 62
     2
100
AcDbTrace
 10
1826.826803324387
 20
2962.806616229696
 30
0.0
 11
1783.897871136252
 21
2959.877684041561
 31
0.0
 12
1819.755735512521
 22
2959.877684041561
 32
0.0
 13
1819.755735512521
 23
2959.877684041561
 33
0.0
210
0.0
220
0.0
230
1.0
  0
SOLID
  5
770
330
768
100
AcDbEntity
  8
HATCH
  6
CONTINUOUS
 62
     2
100
AcDbTrace
 10
1819.755735512521
 20
3675.73554841783
 30
0.0
 11
1776.826803324387
 21
3672.806616229696
 31
0.0
 12
1826.826803324387
 22
3672.806616229696
 32
0.0
 13
1826.826803324387
 23
3672.806616229696
 33
0.0
210
0.0
220
0.0
230
1.0
  0
SOLID
  5
771
330
768
100
AcDbEntity
  8
HATCH
  6
CONTINUOUS
 62
     2
100
AcDbTrace
 10
1783.897871136252
 20
3675.73554841783
 30
0.0
 11
1776.826803324387
 21
3672.806616229696
 31
0.0
 12
1819.755735512521
 22
3675.73554841783
 32
0.0
 13
1819.755735512521
 23
3675.73554841783
 33
0.0
210
0.0
220
0.0
230
1.0
  0
SOLID
  5
772
330
768
100
AcDbEntity
  8
HATCH
  6
CONTINUOUS
 62
     2
100
AcDbTrace
 10
1816.826803324387
 20
3682.806616229696
 30
0.0
 11
1783.897871136252
 21
3675.73554841783
 31
0.0
 12
1819.755735512521
 22
3675.73554841783
 32
0.0
 13
1819.755735512521
 23
3675.73554841783
 33
0.0
210
0.0
220
0.0
230
1.0
  0
SOLID
  5
773
330
768
100
AcDbEntity
  8
HATCH
  6
CONTINUOUS
 62
     2
100
AcDbTrace
 10
1786.826803324387
 20
3682.806616229696
 30
0.0
 11
1783.897871136252
 21
3675.73554841783
 31
0.0
 12
1816.826803324387
 22
3682.806616229696
 32
0.0
 13
1816.826803324387
 23
3682.806616229696
 33
0.0
210
0.0
220
0.0
230
1.0
  0
SOLID
  5
774
330
768
100
AcDbEntity
  8
HATCH
  6
CONTINUOUS
 62
     2
100
AcDbTrace
 10
1786.826803324387
 20
3682.806616229696
 30
0.0
 11
1816.826803324387
 21
3747.806616229696
 31
0.0
 12
1786.826803324387
 22
3747.806616229696
 32
0.0
 13
1786.826803324387
 23
3747.806616229696
 33
0.0
210
0.0
220
0.0
230
1.0
  0
SOLID
  5
775
330
768
100
AcDbEntity
  8
HATCH
  6
CONTINUOUS
 62
     2
100
AcDbTrace
 10
1816.826803324387
 20
3747.806616229696
 30
0.0
 11
1786.826803324387
 21
3682.806616229696
 31
0.0
 12
1816.826803324387
 22
3682.806616229696
 32
0.0
 13
1816.826803324387
 23
3682.806616229696
 33
0.0
210
0.0
220
0.0
230
1.0
  0
ENDBLK
  5
777
330
768
100
AcDbEntity
  8
0
100
AcDbBlockEnd
  0
BLOCK
  5
77D
330
778
100
AcDbEntity
  8
0
100
AcDbBlockBegin
  2
*U7
 70
     1
 10
0.0
 20
0.0
 30
0.0
  3
*U7
  1

  0
SOLID
  5
779
330
778
100
AcDbEntity
  8
HATCH
  6
CONTINUOUS
 62
     1
100
AcDbTrace
 10
3691.826803324387
 20
3317.806616229695
 30
0.0
 11
3766.826803324387
 21
3392.806616229695
 31
0.0
 12
3616.826803324387
 22
3392.806616229695
 32
0.0
 13
3616.826803324387
 23
3392.806616229695
 33
0.0
210
0.0
220
0.0
230
1.0
  0
SOLID
  5
77A
330
778
100
AcDbEntity
  8
HATCH
  6
CONTINUOUS
 62
     1
100
AcDbTrace
 10
3691.826803324387
 20
3317.806616229695
 30
0.0
 11
3616.826803324387
 21
3392.806616229695
 31
0.0
 12
3616.826803324387
 22
3242.806616229696
 32
0.0
 13
3616.826803324387
 23
3242.806616229696
 33
0.0
210
0.0
220
0.0
230
1.0
  0
SOLID
  5
77B
330
778
100
AcDbEntity
  8
HATCH
  6
CONTINUOUS
 62
     1
100
AcDbTrace
 10
3691.826803324387
 20
3317.806616229695
 30
0.0
 11
3616.826803324387
 21
3242.806616229696
 31
0.0
 12
3766.826803324387
 22
3242.806616229696
 32
0.0
 13
3766.826803324387
 23
3242.806616229696
 33
0.0
210
0.0
220
0.0
230
1.0
  0
SOLID
  5
77C
330
778
100
AcDbEntity
  8
HATCH
  6
CONTINUOUS
 62
     1
100
AcDbTrace
 10
3691.826803324387
 20
3317.806616229695
 30
0.0
 11
3766.826803324387
 21
3242.806616229696
 31
0.0
 12
3766.826803324387
 22
3392.806616229695
 32
0.0
 13
3766.826803324387
 23
3392.806616229695
 33
0.0
210
0.0
220
0.0
230
1.0
  0
ENDBLK
  5
77E
330
778
100
AcDbEntity
  8
0
100
AcDbBlockEnd
  0
BLOCK
  5
784
330
77F
100
AcDbEntity
  8
0
100
AcDbBlockBegin
  2
*U8
 70
     1
 10
0.0
 20
0.0
 30
0.0
  3
*U8
  1

  0
SOLID
  5
780
330
77F
100
AcDbEntity
  8
HATCH
  6
CONTINUOUS
 62
     1
100
AcDbTrace
 10
3791.826803324387
 20
3317.806616229695
 30
0.0
 11
3766.826803324387
 21
3267.806616229695
 31
0.0
 12
3816.826803324387
 22
3267.806616229695
 32
0.0
 13
3816.826803324387
 23
3267.806616229695
 33
0.0
  0
SOLID
  5
781
330
77F
100
AcDbEntity
  8
HATCH
  6
CONTINUOUS
 62
     1
100
AcDbTrace
 10
3791.826803324387
 20
3317.806616229695
 30
0.0
 11
3816.826803324387
 21
3267.806616229695
 31
0.0
 12
3816.826803324387
 22
3367.806616229696
 32
0.0
 13
3816.826803324387
 23
3367.806616229696
 33
0.0
210
0.0
220
0.0
230
1.0
  0
SOLID
  5
782
330
77F
100
AcDbEntity
  8
HATCH
  6
CONTINUOUS
 62
     1
100
AcDbTrace
 10
3791.826803324387
 20
3317.806616229695
 30
0.0
 11
3816.826803324387
 21
3367.806616229696
 31
0.0
 12
3766.826803324387
 22
3367.806616229696
 32
0.0
 13
3766.826803324387
 23
3367.806616229696
 33
0.0
210
0.0
220
0.0
230
1.0
  0
SOLID
  5
783
330
77F
100
AcDbEntity
  8
HATCH
  6
CONTINUOUS
 62
     1
100
AcDbTrace
 10
3791.826803324387
 20
3317.806616229695
 30
0.0
 11
3766.826803324387
 21
3367.806616229696
 31
0.0
 12
3766.826803324387
 22
3267.806616229695
 32
0.0
 13
3766.826803324387
 23
3267.806616229695
 33
0.0
  0
ENDBLK
  5
785
330
77F
100
AcDbEntity
  8
0
100
AcDbBlockEnd
  0
BLOCK
  5
78B
330
786
100
AcDbEntity
  8
0
100
AcDbBlockBegin
  2
*U9
 70
     1
 10
0.0
 20
0.0
 30
0.0
  3
*U9
  1

  0
SOLID
  5
787
330
786
100
AcDbEntity
  8
HATCH
  6
CONTINUOUS
 62
    32
100
AcDbTrace
 10
6113.826803324386
 20
5815.734071176624
 30
0.0
 11
6113.826803324385
 21
5915.734071176625
 31
0.0
 12
5963.826803324387
 22
5915.734071176625
 32
0.0
 13
5963.826803324387
 23
5915.734071176625
 33
0.0
210
0.0
220
0.0
230
1.0
  0
SOLID
  5
788
330
786
100
AcDbEntity
  8
HATCH
  6
CONTINUOUS
 62
    32
100
AcDbTrace
 10
5963.826803324387
 20
5915.734071176625
 30
0.0
 11
5963.826803324387
 21
5815.734071176624
 31
0.0
 12
6113.826803324386
 22
5815.734071176624
 32
0.0
 13
6113.826803324386
 23
5815.734071176624
 33
0.0
210
0.0
220
0.0
230
1.0
  0
SOLID
  5
789
330
786
100
AcDbEntity
  8
HATCH
  6
CONTINUOUS
 62
    32
100
AcDbTrace
 10
5763.826803324389
 20
5815.734071176624
 30
0.0
 11
5763.82680332439
 21
5915.734071176625
 31
0.0
 12
5613.826803324386
 22
5915.734071176625
 32
0.0
 13
5613.826803324386
 23
5915.734071176625
 33
0.0
210
0.0
220
0.0
230
1.0
  0
SOLID
  5
78A
330
786
100
AcDbEntity
  8
HATCH
  6
CONTINUOUS
 62
    32
100
AcDbTrace
 10
5613.826803324386
 20
5915.734071176625
 30
0.0
 11
5613.826803324385
 21
5815.734071176624
 31
0.0
 12
5763.826803324389
 22
5815.734071176624
 32
0.0
 13
5763.826803324389
 23
5815.734071176624
 33
0.0
210
0.0
220
0.0
230
1.0
  0
ENDBLK
  5
78C
330
786
100
AcDbEntity
  8
0
100
AcDbBlockEnd
  0
BLOCK
  5
7AC
330
78D
100
AcDbEntity
  8
0
100
AcDbBlockBegin
  2
*U10
 70
     1
 10
0.0
 20
0.0
 30
0.0
  3
*U10
  1

  0
SOLID
  5
78E
330
78D
100
AcDbEntity
  8
HATCH
  6
CONTINUOUS
 62
     1
100
AcDbTrace
 10
5783.826803324387
 20
5815.734071176624
 30
0.0
 11
5763.826803324389
 21
4815.734071176623
 31
0.0
 12
5783.826803324388
 22
4815.734071176624
 32
0.0
 13
5783.826803324388
 23
4815.734071176624
 33
0.0
210
0.0
220
0.0
230
1.0
  0
SOLID
  5
78F
330
78D
100
AcDbEntity
  8
HATCH
  6
CONTINUOUS
 62
     1
100
AcDbTrace
 10
5763.826803324389
 20
5815.734071176624
 30
0.0
 11
5763.826803324389
 21
4815.734071176623
 31
0.0
 12
5783.826803324387
 22
5815.734071176624
 32
0.0
 13
5783.826803324387
 23
5815.734071176624
 33
0.0
210
0.0
220
0.0
230
1.0
  0
SOLID
  5
790
330
78D
100
AcDbEntity
  8
HATCH
  6
CONTINUOUS
 62
     1
100
AcDbTrace
 10
5783.826803324387
 20
5915.734071176625
 30
0.0
 11
5763.826803324389
 21
5815.734071176624
 31
0.0
 12
5783.826803324387
 22
5815.734071176624
 32
0.0
 13
5783.826803324387
 23
5815.734071176624
 33
0.0
210
0.0
220
0.0
230
1.0
  0
SOLID
  5
791
330
78D
100
AcDbEntity
  8
HATCH
  6
CONTINUOUS
 62
     1
100
AcDbTrace
 10
5763.826803324389
 20
5915.734071176625
 30
0.0
 11
5763.826803324389
 21
5815.734071176624
 31
0.0
 12
5783.826803324387
 22
5915.734071176625
 32
0.0
 13
5783.826803324387
 23
5915.734071176625
 33
0.0
210
0.0
220
0.0
230
1.0
  0
SOLID
  5
792
330
78D
100
AcDbEntity
  8
HATCH
  6
CONTINUOUS
 62
     1
100
AcDbTrace
 10
5763.82680332439
 20
6115.734071176624
 30
0.0
 11
5763.826803324389
 21
5915.734071176625
 31
0.0
 12
5783.826803324387
 22
5915.734071176625
 32
0.0
 13
5783.826803324387
 23
5915.734071176625
 33
0.0
210
0.0
220
0.0
230
1.0
  0
SOLID
  5
793
330
78D
100
AcDbEntity
  8
HATCH
  6
CONTINUOUS
 62
     1
100
AcDbTrace
 10
5783.826803324388
 20
6115.734071176625
 30
0.0
 11
5763.82680332439
 21
6115.734071176624
 31
0.0
 12
5783.826803324387
 22
5915.734071176625
 32
0.0
 13
5783.826803324387
 23
5915.734071176625
 33
0.0
210
0.0
220
0.0
230
1.0
  0
SOLID
  5
794
330
78D
100
AcDbEntity
  8
HATCH
  6
CONTINUOUS
 62
     1
100
AcDbTrace
 10
5813.826803324388
 20
5815.734071176624
 30
0.0
 11
5783.826803324387
 21
4815.734071176624
 31
0.0
 12
5813.826803324388
 22
4815.734071176624
 32
0.0
 13
5813.826803324388
 23
4815.734071176624
 33
0.0
210
0.0
220
0.0
230
1.0
  0
SOLID
  5
795
330
78D
100
AcDbEntity
  8
HATCH
  6
CONTINUOUS
 62
     1
100
AcDbTrace
 10
5783.826803324387
 20
5815.734071176624
 30
0.0
 11
5783.826803324387
 21
4815.734071176624
 31
0.0
 12
5813.826803324388
 22
5815.734071176624
 32
0.0
 13
5813.826803324388
 23
5815.734071176624
 33
0.0
210
0.0
220
0.0
230
1.0
  0
SOLID
  5
796
330
78D
100
AcDbEntity
  8
HATCH
  6
CONTINUOUS
 62
     1
100
AcDbTrace
 10
5813.826803324388
 20
5915.734071176625
 30
0.0
 11
5783.826803324387
 21
5815.734071176624
 31
0.0
 12
5813.826803324388
 22
5815.734071176624
 32
0.0
 13
5813.826803324388
 23
5815.734071176624
 33
0.0
210
0.0
220
0.0
230
1.0
  0
SOLID
  5
797
330
78D
100
AcDbEntity
  8
HATCH
  6
CONTINUOUS
 62
     1
100
AcDbTrace
 10
5783.826803324387
 20
5915.734071176625
 30
0.0
 11
5783.826803324387
 21
5815.734071176624
 31
0.0
 12
5813.826803324388
 22
5915.734071176625
 32
0.0
 13
5813.826803324388
 23
5915.734071176625
 33
0.0
210
0.0
220
0.0
230
1.0
  0
SOLID
  5
798
330
78D
100
AcDbEntity
  8
HATCH
  6
CONTINUOUS
 62
     1
100
AcDbTrace
 10
5783.826803324387
 20
6115.734071176624
 30
0.0
 11
5783.826803324387
 21
5915.734071176625
 31
0.0
 12
5813.826803324388
 22
5915.734071176625
 32
0.0
 13
5813.826803324388
 23
5915.734071176625
 33
0.0
210
0.0
220
0.0
230
1.0
  0
SOLID
  5
799
330
78D
100
AcDbEntity
  8
HATCH
  6
CONTINUOUS
 62
     1
100
AcDbTrace
 10
5813.826803324389
 20
6115.734071176625
 30
0.0
 11
5783.826803324387
 21
6115.734071176624
 31
0.0
 12
5813.826803324388
 22
5915.734071176625
 32
0.0
 13
5813.826803324388
 23
5915.734071176625
 33
0.0
210
0.0
220
0.0
230
1.0
  0
SOLID
  5
79A
330
78D
100
AcDbEntity
  8
HATCH
  6
CONTINUOUS
 62
     1
100
AcDbTrace
 10
5813.826803324388
 20
4815.734071176624
 30
0.0
 11
5913.826803324386
 21
4815.734071176624
 31
0.0
 12
5813.826803324388
 22
5815.734071176624
 32
0.0
 13
5813.826803324388
 23
5815.734071176624
 33
0.0
210
0.0
220
0.0
230
1.0
  0
SOLID
  5
79B
330
78D
100
AcDbEntity
  8
HATCH
  6
CONTINUOUS
 62
     1
100
AcDbTrace
 10
5913.826803324386
 20
5815.734071176624
 30
0.0
 11
5813.826803324388
 21
5815.734071176624
 31
0.0
 12
5913.826803324386
 22
4815.734071176624
 32
0.0
 13
5913.826803324386
 23
4815.734071176624
 33
0.0
210
0.0
220
0.0
230
1.0
  0
SOLID
  5
79C
330
78D
100
AcDbEntity
  8
HATCH
  6
CONTINUOUS
 62
     1
100
AcDbTrace
 10
5813.826803324388
 20
5815.734071176624
 30
0.0
 11
5913.826803324386
 21
5815.734071176624
 31
0.0
 12
5813.826803324388
 22
5915.734071176625
 32
0.0
 13
5813.826803324388
 23
5915.734071176625
 33
0.0
210
0.0
220
0.0
230
1.0
  0
SOLID
  5
79D
330
78D
100
AcDbEntity
  8
HATCH
  6
CONTINUOUS
 62
     1
100
AcDbTrace
 10
5913.826803324386
 20
5915.734071176625
 30
0.0
 11
5813.826803324388
 21
5915.734071176625
 31
0.0
 12
5913.826803324386
 22
5815.734071176624
 32
0.0
 13
5913.826803324386
 23
5815.734071176624
 33
0.0
210
0.0
220
0.0
230
1.0
  0
SOLID
  5
79E
330
78D
100
AcDbEntity
  8
HATCH
  6
CONTINUOUS
 62
     1
100
AcDbTrace
 10
5813.826803324388
 20
5915.734071176625
 30
0.0
 11
5913.826803324386
 21
5915.734071176625
 31
0.0
 12
5813.826803324388
 22
6115.734071176625
 32
0.0
 13
5813.826803324388
 23
6115.734071176625
 33
0.0
210
0.0
220
0.0
230
1.0
  0
SOLID
  5
79F
330
78D
100
AcDbEntity
  8
HATCH
  6
CONTINUOUS
 62
     1
100
AcDbTrace
 10
5913.826803324386
 20
6115.734071176625
 30
0.0
 11
5813.826803324388
 21
6115.734071176625
 31
0.0
 12
5913.826803324386
 22
5915.734071176625
 32
0.0
 13
5913.826803324386
 23
5915.734071176625
 33
0.0
210
0.0
220
0.0
230
1.0
  0
SOLID
  5
7A0
330
78D
100
AcDbEntity
  8
HATCH
  6
CONTINUOUS
 62
     1
100
AcDbTrace
 10
5943.826803324387
 20
5815.734071176624
 30
0.0
 11
5913.826803324386
 21
4815.734071176624
 31
0.0
 12
5943.826803324387
 22
4815.734071176624
 32
0.0
 13
5943.826803324387
 23
4815.734071176624
 33
0.0
210
0.0
220
0.0
230
1.0
  0
SOLID
  5
7A1
330
78D
100
AcDbEntity
  8
HATCH
  6
CONTINUOUS
 62
     1
100
AcDbTrace
 10
5913.826803324386
 20
5815.734071176624
 30
0.0
 11
5913.826803324386
 21
4815.734071176624
 31
0.0
 12
5943.826803324387
 22
5815.734071176624
 32
0.0
 13
5943.826803324387
 23
5815.734071176624
 33
0.0
  0
SOLID
  5
7A2
330
78D
100
AcDbEntity
  8
HATCH
  6
CONTINUOUS
 62
     1
100
AcDbTrace
 10
5943.826803324387
 20
5915.734071176625
 30
0.0
 11
5913.826803324386
 21
5815.734071176624
 31
0.0
 12
5943.826803324387
 22
5815.734071176624
 32
0.0
 13
5943.826803324387
 23
5815.734071176624
 33
0.0
210
0.0
220
0.0
230
1.0
  0
SOLID
  5
7A3
330
78D
100
AcDbEntity
  8
HATCH
  6
CONTINUOUS
 62
     1
100
AcDbTrace
 10
5913.826803324386
 20
5915.734071176625
 30
0.0
 11
5913.826803324386
 21
5815.734071176624
 31
0.0
 12
5943.826803324387
 22
5915.734071176625
 32
0.0
 13
5943.826803324387
 23
5915.734071176625
 33
0.0
210
0.0
220
0.0
230
1.0
  0
SOLID
  5
7A4
330
78D
100
AcDbEntity
  8
HATCH
  6
CONTINUOUS
 62
     1
100
AcDbTrace
 10
5913.826803324386
 20
5915.734071176625
 30
0.0
 11
5943.826803324388
 21
6115.734071176625
 31
0.0
 12
5913.826803324386
 22
6115.734071176625
 32
0.0
 13
5913.826803324386
 23
6115.734071176625
 33
0.0
  0
SOLID
  5
7A5
330
78D
100
AcDbEntity
  8
HATCH
  6
CONTINUOUS
 62
     1
100
AcDbTrace
 10
5943.826803324388
 20
6115.734071176625
 30
0.0
 11
5913.826803324386
 21
5915.734071176625
 31
0.0
 12
5943.826803324387
 22
5915.734071176625
 32
0.0
 13
5943.826803324387
 23
5915.734071176625
 33
0.0
  0
SOLID
  5
7A6
330
78D
100
AcDbEntity
  8
HATCH
  6
CONTINUOUS
 62
     1
100
AcDbTrace
 10
5943.826803324387
 20
4815.734071176624
 30
0.0
 11
5963.826803324387
 21
4815.734071176624
 31
0.0
 12
5943.826803324387
 22
5815.734071176624
 32
0.0
 13
5943.826803324387
 23
5815.734071176624
 33
0.0
210
0.0
220
0.0
230
1.0
  0
SOLID
  5
7A7
330
78D
100
AcDbEntity
  8
HATCH
  6
CONTINUOUS
 62
     1
100
AcDbTrace
 10
5963.826803324387
 20
5815.734071176624
 30
0.0
 11
5943.826803324387
 21
5815.734071176624
 31
0.0
 12
5963.826803324387
 22
4815.734071176624
 32
0.0
 13
5963.826803324387
 23
4815.734071176624
 33
0.0
210
0.0
220
0.0
230
1.0
  0
SOLID
  5
7A8
330
78D
100
AcDbEntity
  8
HATCH
  6
CONTINUOUS
 62
     1
100
AcDbTrace
 10
5943.826803324387
 20
5815.734071176624
 30
0.0
 11
5963.826803324387
 21
5815.734071176624
 31
0.0
 12
5943.826803324387
 22
5915.734071176625
 32
0.0
 13
5943.826803324387
 23
5915.734071176625
 33
0.0
  0
SOLID
  5
7A9
330
78D
100
AcDbEntity
  8
HATCH
  6
CONTINUOUS
 62
     1
100
AcDbTrace
 10
5963.826803324387
 20
5915.734071176625
 30
0.0
 11
5943.826803324387
 21
5915.734071176625
 31
0.0
 12
5963.826803324387
 22
5815.734071176624
 32
0.0
 13
5963.826803324387
 23
5815.734071176624
 33
0.0
  0
SOLID
  5
7AA
330
78D
100
AcDbEntity
  8
HATCH
  6
CONTINUOUS
 62
     1
100
AcDbTrace
 10
5943.826803324387
 20
5915.734071176625
 30
0.0
 11
5963.826803324387
 21
5915.734071176625
 31
0.0
 12
5943.826803324388
 22
6115.734071176625
 32
0.0
 13
5943.826803324388
 23
6115.734071176625
 33
0.0
210
0.0
220
0.0
230
1.0
  0
SOLID
  5
7AB
330
78D
100
AcDbEntity
  8
HATCH
  6
CONTINUOUS
 62
     1
100
AcDbTrace
 10
5963.826803324387
 20
6115.734071176625
 30
0.0
 11
5943.826803324388
 21
6115.734071176625
 31
0.0
 12
5963.826803324387
 22
5915.734071176625
 32
0.0
 13
5963.826803324387
 23
5915.734071176625
 33
0.0
210
0.0
220
0.0
230
1.0
  0
ENDBLK
  5
7AD
330
78D
100
AcDbEntity
  8
0
100
AcDbBlockEnd
  0
BLOCK
  5
7B7
330
7AE
100
AcDbEntity
  8
0
100
AcDbBlockBegin
  2
*U11
 70
     1
 10
0.0
 20
0.0
 30
0.0
  3
*U11
  1

  0
SOLID
  5
7AF
330
7AE
100
AcDbEntity
  8
HATCH
  6
CONTINUOUS
 62
     2
100
AcDbTrace
 10
2216.826803324384
 20
4867.806616229696
 30
0.0
 11
2216.826803324384
 21
4967.806616229696
 31
0.0
 12
1716.826803324388
 22
4867.806616229696
 32
0.0
 13
1716.826803324388
 23
4867.806616229696
 33
0.0
  0
SOLID
  5
7B0
330
7AE
100
AcDbEntity
  8
HATCH
  6
CONTINUOUS
 62
     2
100
AcDbTrace
 10
1716.826803324388
 20
4967.806616229696
 30
0.0
 11
1716.826803324388
 21
4867.806616229696
 31
0.0
 12
2216.826803324384
 22
4967.806616229696
 32
0.0
 13
2216.826803324384
 23
4967.806616229696
 33
0.0
210
0.0
220
0.0
230
1.0
  0
SOLID
  5
7B1
330
7AE
100
AcDbEntity
  8
HATCH
  6
CONTINUOUS
 62
     2
100
AcDbTrace
 10
1866.826803324387
 20
4817.806616229696
 30
0.0
 11
1716.826803324388
 21
4767.806616229696
 31
0.0
 12
1866.826803324387
 22
4767.806616229696
 32
0.0
 13
1866.826803324387
 23
4767.806616229696
 33
0.0
210
0.0
220
0.0
230
1.0
  0
SOLID
  5
7B2
330
7AE
100
AcDbEntity
  8
HATCH
  6
CONTINUOUS
 62
     2
100
AcDbTrace
 10
2066.826803324386
 20
4817.806616229696
 30
0.0
 11
2066.826803324387
 21
4767.806616229696
 31
0.0
 12
2216.826803324384
 22
4767.806616229696
 32
0.0
 13
2216.826803324384
 23
4767.806616229696
 33
0.0
210
0.0
220
0.0
230
1.0
  0
SOLID
  5
7B3
330
7AE
100
AcDbEntity
  8
HATCH
  6
CONTINUOUS
 62
     2
100
AcDbTrace
 10
1716.826803324388
 20
4867.806616229696
 30
0.0
 11
1716.826803324388
 21
4767.806616229696
 31
0.0
 12
1866.826803324387
 22
4817.806616229696
 32
0.0
 13
1866.826803324387
 23
4817.806616229696
 33
0.0
  0
SOLID
  5
7B4
330
7AE
100
AcDbEntity
  8
HATCH
  6
CONTINUOUS
 62
     2
100
AcDbTrace
 10
1866.826803324387
 20
4817.806616229696
 30
0.0
 11
2216.826803324384
 21
4867.806616229696
 31
0.0
 12
1716.826803324388
 22
4867.806616229696
 32
0.0
 13
1716.826803324388
 23
4867.806616229696
 33
0.0
210
0.0
220
0.0
230
1.0
  0
SOLID
  5
7B5
330
7AE
100
AcDbEntity
  8
HATCH
  6
CONTINUOUS
 62
     2
100
AcDbTrace
 10
2216.826803324384
 20
4867.806616229696
 30
0.0
 11
1866.826803324387
 21
4817.806616229696
 31
0.0
 12
2066.826803324386
 22
4817.806616229696
 32
0.0
 13
2066.826803324386
 23
4817.806616229696
 33
0.0
210
0.0
220
0.0
230
1.0
  0
SOLID
  5
7B6
330
7AE
100
AcDbEntity
  8
HATCH
  6
CONTINUOUS
 62
     2
100
AcDbTrace
 10
2216.826803324384
 20
4867.806616229696
 30
0.0
 11
2066.826803324386
 21
4817.806616229696
 31
0.0
 12
2216.826803324384
 22
4767.806616229696
 32
0.0
 13
2216.826803324384
 23
4767.806616229696
 33
0.0
210
0.0
220
0.0
230
1.0
  0
ENDBLK
  5
7B8
330
7AE
100
AcDbEntity
  8
0
100
AcDbBlockEnd
  0
BLOCK
  5
7C0
330
7B9
100
AcDbEntity
  8
0
100
AcDbBlockBegin
  2
*U12
 70
     1
 10
0.0
 20
0.0
 30
0.0
  3
*U12
  1

  0
SOLID
  5
7BA
330
7B9
100
AcDbEntity
  8
HATCH
  6
CONTINUOUS
 62
     3
100
AcDbTrace
 10
1866.826803324387
 20
3667.806616229695
 30
0.0
 11
1966.826803324385
 21
3667.806616229695
 31
0.0
 12
1866.826803324387
 22
4767.806616229696
 32
0.0
 13
1866.826803324387
 23
4767.806616229696
 33
0.0
210
0.0
220
0.0
230
1.0
  0
SOLID
  5
7BB
330
7B9
100
AcDbEntity
  8
HATCH
  6
CONTINUOUS
 62
     3
100
AcDbTrace
 10
1966.826803324385
 20
4817.806616229696
 30
0.0
 11
1866.826803324387
 21
4767.806616229696
 31
0.0
 12
1966.826803324385
 22
3667.806616229695
 32
0.0
 13
1966.826803324385
 23
3667.806616229695
 33
0.0
  0
SOLID
  5
7BC
330
7B9
100
AcDbEntity
  8
HATCH
  6
CONTINUOUS
 62
     3
100
AcDbTrace
 10
1866.826803324387
 20
4767.806616229696
 30
0.0
 11
1966.826803324385
 21
4817.806616229696
 31
0.0
 12
1866.826803324387
 22
4817.806616229697
 32
0.0
 13
1866.826803324387
 23
4817.806616229697
 33
0.0
210
0.0
220
0.0
230
1.0
  0
SOLID
  5
7BD
330
7B9
100
AcDbEntity
  8
HATCH
  6
CONTINUOUS
 62
     3
100
AcDbTrace
 10
2066.826803324387
 20
4767.806616229697
 30
0.0
 11
2066.826803324387
 21
4817.806616229697
 31
0.0
 12
2066.826803324384
 22
3667.806616229695
 32
0.0
 13
2066.826803324384
 23
3667.806616229695
 33
0.0
210
0.0
220
0.0
230
1.0
  0
SOLID
  5
7BE
330
7B9
100
AcDbEntity
  8
HATCH
  6
CONTINUOUS
 62
     3
100
AcDbTrace
 10
1966.826803324384
 20
4817.806616229697
 30
0.0
 11
2066.826803324384
 21
3667.806616229695
 31
0.0
 12
2066.826803324387
 22
4817.806616229697
 32
0.0
 13
2066.826803324387
 23
4817.806616229697
 33
0.0
210
0.0
220
0.0
230
1.0
  0
SOLID
  5
7BF
330
7B9
100
AcDbEntity
  8
HATCH
  6
CONTINUOUS
 62
     3
100
AcDbTrace
 10
2066.826803324384
 20
3667.806616229695
 30
0.0
 11
1966.826803324384
 21
4817.806616229697
 31
0.0
 12
1966.826803324385
 22
3667.806616229695
 32
0.0
 13
1966.826803324385
 23
3667.806616229695
 33
0.0
210
0.0
220
0.0
230
1.0
  0
ENDBLK
  5
7C1
330
7B9
100
AcDbEntity
  8
0
100
AcDbBlockEnd
  0
BLOCK
  5
7D8
330
7C2
100
AcDbEntity
  8
0
100
AcDbBlockBegin
  2
*U13
 70
     1
 10
0.0
 20
0.0
 30
0.0
  3
*U13
  1

  0
SOLID
  5
7C3
330
7C2
100
AcDbEntity
  8
HATCH
  6
CONTINUOUS
 62
    32
100
AcDbTrace
 10
1709.761941470181
 20
4687.945314869506
 30
0.0
 11
1685.099727278134
 21
4670.339169176883
 31
0.0
 12
1784.348839529001
 22
4679.549412843525
 32
0.0
 13
1784.348839529001
 23
4679.549412843525
 33
0.0
210
0.0
220
0.0
230
1.0
  0
SOLID
  5
7C4
330
7C2
100
AcDbEntity
  8
HATCH
  6
CONTINUOUS
 62
    32
100
AcDbTrace
 10
1798.547358150721
 20
4707.426595906478
 30
0.0
 11
1709.761941470181
 21
4687.945314869506
 31
0.0
 12
1784.348839529001
 22
4679.549412843525
 32
0.0
 13
1784.348839529001
 23
4679.549412843525
 33
0.0
210
0.0
220
0.0
230
1.0
  0
SOLID
  5
7C5
330
7C2
100
AcDbEntity
  8
HATCH
  6
CONTINUOUS
 62
    32
100
AcDbTrace
 10
1593.730997970957
 20
4710.175963422602
 30
0.0
 11
1685.099727278134
 21
4670.339169176883
 31
0.0
 12
1709.761941470181
 22
4687.945314869506
 32
0.0
 13
1709.761941470181
 23
4687.945314869506
 33
0.0
  0
SOLID
  5
7C6
330
7C2
100
AcDbEntity
  8
HATCH
  6
CONTINUOUS
 62
    32
100
AcDbTrace
 10
1622.778145356132
 20
4714.330722570887
 30
0.0
 11
1593.730997970957
 21
4710.175963422602
 31
0.0
 12
1709.761941470181
 22
4687.945314869506
 32
0.0
 13
1709.761941470181
 23
4687.945314869506
 33
0.0
210
0.0
220
0.0
230
1.0
  0
SOLID
  5
7C7
330
7C2
100
AcDbEntity
  8
HATCH
  6
CONTINUOUS
 62
    32
100
AcDbTrace
 10
1866.826803324387
 20
4735.519050676468
 30
0.0
 11
1798.547358150721
 21
4707.426595906478
 31
0.0
 12
1784.348839529001
 22
4679.549412843525
 32
0.0
 13
1784.348839529001
 23
4679.549412843525
 33
0.0
210
0.0
220
0.0
230
1.0
  0
SOLID
  5
7C8
330
7C2
100
AcDbEntity
  8
HATCH
  6
CONTINUOUS
 62
    32
100
AcDbTrace
 10
1866.826803324387
 20
4735.519050676468
 30
0.0
 11
1866.826803324386
 21
4767.806616229696
 31
0.0
 12
1866.493098795344
 22
4767.806616229696
 32
0.0
 13
1866.493098795344
 23
4767.806616229696
 33
0.0
210
0.0
220
0.0
230
1.0
  0
SOLID
  5
7C9
330
7C2
100
AcDbEntity
  8
HATCH
  6
CONTINUOUS
 62
    32
100
AcDbTrace
 10
1866.493098795344
 20
4767.806616229696
 30
0.0
 11
1798.547358150721
 21
4707.426595906478
 31
0.0
 12
1866.826803324387
 22
4735.519050676468
 32
0.0
 13
1866.826803324387
 23
4735.519050676468
 33
0.0
210
0.0
220
0.0
230
1.0
  0
SOLID
  5
7CA
330
7C2
100
AcDbEntity
  8
HATCH
  6
CONTINUOUS
 62
    32
100
AcDbTrace
 10
1559.777832563217
 20
4779.854238303588
 30
0.0
 11
1593.730997970957
 21
4710.175963422602
 31
0.0
 12
1622.778145356132
 22
4714.330722570887
 32
0.0
 13
1622.778145356132
 23
4714.330722570887
 33
0.0
210
0.0
220
0.0
230
1.0
  0
SOLID
  5
7CB
330
7C2
100
AcDbEntity
  8
HATCH
  6
CONTINUOUS
 62
    32
100
AcDbTrace
 10
1532.936850561357
 20
4789.165117815619
 30
0.0
 11
1593.730997970957
 21
4710.175963422602
 31
0.0
 12
1559.777832563217
 22
4779.854238303588
 32
0.0
 13
1559.777832563217
 23
4779.854238303588
 33
0.0
210
0.0
220
0.0
230
1.0
  0
SOLID
  5
7CC
330
7C2
100
AcDbEntity
  8
HATCH
  6
CONTINUOUS
 62
    32
100
AcDbTrace
 10
1536.826803324387
 20
4867.806616229696
 30
0.0
 11
1532.936850561357
 21
4789.165117815619
 31
0.0
 12
1559.777832563217
 22
4779.854238303588
 32
0.0
 13
1559.777832563217
 23
4779.854238303588
 33
0.0
210
0.0
220
0.0
230
1.0
  0
SOLID
  5
7CD
330
7C2
100
AcDbEntity
  8
HATCH
  6
CONTINUOUS
 62
    32
100
AcDbTrace
 10
1517.817357984652
 20
4887.687276821637
 30
0.0
 11
1532.936850561357
 21
4789.165117815619
 31
0.0
 12
1536.826803324387
 22
4867.806616229696
 32
0.0
 13
1536.826803324387
 23
4867.806616229696
 33
0.0
  0
SOLID
  5
7CE
330
7C2
100
AcDbEntity
  8
HATCH
  6
CONTINUOUS
 62
    32
100
AcDbTrace
 10
1559.777832563217
 20
4955.758994155804
 30
0.0
 11
1517.817357984652
 21
4887.687276821637
 31
0.0
 12
1536.826803324387
 22
4867.806616229696
 32
0.0
 13
1536.826803324387
 23
4867.806616229696
 33
0.0
210
0.0
220
0.0
230
1.0
  0
SOLID
  5
7CF
330
7C2
100
AcDbEntity
  8
HATCH
  6
CONTINUOUS
 62
    32
100
AcDbTrace
 10
1552.127905428087
 20
4981.271469958702
 30
0.0
 11
1517.817357984652
 21
4887.687276821637
 31
0.0
 12
1559.777832563217
 22
4955.758994155804
 32
0.0
 13
1559.777832563217
 23
4955.758994155804
 33
0.0
210
0.0
220
0.0
230
1.0
  0
SOLID
  5
7D0
330
7C2
100
AcDbEntity
  8
HATCH
  6
CONTINUOUS
 62
    32
100
AcDbTrace
 10
1622.778145356132
 20
5021.282509888504
 30
0.0
 11
1552.127905428087
 21
4981.271469958702
 31
0.0
 12
1559.777832563217
 22
4955.758994155804
 32
0.0
 13
1559.777832563217
 23
4955.758994155804
 33
0.0
210
0.0
220
0.0
230
1.0
  0
SOLID
  5
7D1
330
7C2
100
AcDbEntity
  8
HATCH
  6
CONTINUOUS
 62
    32
100
AcDbTrace
 10
1798.547358150721
 20
5028.186636552915
 30
0.0
 11
1866.493098795344
 21
4967.806616229696
 31
0.0
 12
1890.031884081273
 22
4967.806616229696
 32
0.0
 13
1890.031884081273
 23
4967.806616229696
 33
0.0
210
0.0
220
0.0
230
1.0
  0
SOLID
  5
7D2
330
7C2
100
AcDbEntity
  8
HATCH
  6
CONTINUOUS
 62
    32
100
AcDbTrace
 10
1820.255876112399
 20
5038.986132826198
 30
0.0
 11
1798.547358150721
 21
5028.186636552915
 31
0.0
 12
1890.031884081273
 22
4967.806616229696
 32
0.0
 13
1890.031884081273
 23
4967.806616229696
 33
0.0
  0
SOLID
  5
7D3
330
7C2
100
AcDbEntity
  8
HATCH
  6
CONTINUOUS
 62
    32
100
AcDbTrace
 10
1627.346426361871
 20
5046.673220543208
 30
0.0
 11
1552.127905428087
 21
4981.271469958702
 31
0.0
 12
1622.778145356132
 22
5021.282509888504
 32
0.0
 13
1622.778145356132
 23
5021.282509888504
 33
0.0
210
0.0
220
0.0
230
1.0
  0
SOLID
  5
7D4
330
7C2
100
AcDbEntity
  8
HATCH
  6
CONTINUOUS
 62
    32
100
AcDbTrace
 10
1709.761941470181
 20
5047.667917589887
 30
0.0
 11
1627.346426361871
 21
5046.673220543208
 31
0.0
 12
1622.778145356132
 22
5021.282509888504
 32
0.0
 13
1622.778145356132
 23
5021.282509888504
 33
0.0
210
0.0
220
0.0
230
1.0
  0
SOLID
  5
7D5
330
7C2
100
AcDbEntity
  8
HATCH
  6
CONTINUOUS
 62
    32
100
AcDbTrace
 10
1709.761941470181
 20
5047.667917589887
 30
0.0
 11
1798.547358150721
 21
5028.186636552915
 31
0.0
 12
1820.255876112399
 22
5038.986132826198
 32
0.0
 13
1820.255876112399
 23
5038.986132826198
 33
0.0
210
0.0
220
0.0
230
1.0
  0
SOLID
  5
7D6
330
7C2
100
AcDbEntity
  8
HATCH
  6
CONTINUOUS
 62
    32
100
AcDbTrace
 10
1724.790116592135
 20
5067.648017450263
 30
0.0
 11
1627.346426361871
 21
5046.673220543208
 31
0.0
 12
1709.761941470181
 22
5047.667917589887
 32
0.0
 13
1709.761941470181
 23
5047.667917589887
 33
0.0
210
0.0
220
0.0
230
1.0
  0
SOLID
  5
7D7
330
7C2
100
AcDbEntity
  8
HATCH
  6
CONTINUOUS
 62
    32
100
AcDbTrace
 10
1724.790116592135
 20
5067.648017450263
 30
0.0
 11
1709.761941470181
 21
5047.667917589887
 31
0.0
 12
1820.255876112399
 22
5038.986132826198
 32
0.0
 13
1820.255876112399
 23
5038.986132826198
 33
0.0
210
0.0
220
0.0
230
1.0
  0
ENDBLK
  5
7D9
330
7C2
100
AcDbEntity
  8
0
100
AcDbBlockEnd
  0
BLOCK
  5
7EF
330
7DA
100
AcDbEntity
  8
0
100
AcDbBlockBegin
  2
*U14
 70
     1
 10
0.0
 20
0.0
 30
0.0
  3
*U14
  1

  0
SOLID
  5
7DB
330
7DA
100
AcDbEntity
  8
HATCH
  6
CONTINUOUS
 62
    32
100
AcDbTrace
 10
2096.648282207841
 20
1554.156473190866
 30
0.0
 11
1966.826803324384
 21
1537.806616229695
 31
0.0
 12
1966.826803324385
 22
1517.806616229695
 32
0.0
 13
1966.826803324385
 23
1517.806616229695
 33
0.0
210
0.0
220
0.0
230
1.0
  0
SOLID
  5
7DC
330
7DA
100
AcDbEntity
  8
HATCH
  6
CONTINUOUS
 62
    32
100
AcDbTrace
 10
1837.005324440929
 20
1554.156473190866
 30
0.0
 11
1966.826803324385
 21
1517.806616229695
 31
0.0
 12
1966.826803324384
 22
1537.806616229695
 32
0.0
 13
1966.826803324384
 23
1537.806616229695
 33
0.0
210
0.0
220
0.0
230
1.0
  0
SOLID
  5
7DD
330
7DA
100
AcDbEntity
  8
HATCH
  6
CONTINUOUS
 62
    32
100
AcDbTrace
 10
2084.754228668774
 20
1570.33985357926
 30
0.0
 11
1966.826803324384
 21
1537.806616229695
 31
0.0
 12
2096.648282207841
 22
1554.156473190866
 32
0.0
 13
2096.648282207841
 23
1554.156473190866
 33
0.0
210
0.0
220
0.0
230
1.0
  0
SOLID
  5
7DE
330
7DA
100
AcDbEntity
  8
HATCH
  6
CONTINUOUS
 62
    32
100
AcDbTrace
 10
1848.899377979993
 20
1570.339853579261
 30
0.0
 11
1837.005324440929
 21
1554.156473190866
 31
0.0
 12
1966.826803324384
 22
1537.806616229695
 32
0.0
 13
1966.826803324384
 23
1537.806616229695
 33
0.0
210
0.0
220
0.0
230
1.0
  0
SOLID
  5
7DF
330
7DA
100
AcDbEntity
  8
HATCH
  6
CONTINUOUS
 62
    32
100
AcDbTrace
 10
2188.717823588087
 20
1652.635547265596
 30
0.0
 11
2084.754228668774
 21
1570.33985357926
 31
0.0
 12
2096.648282207841
 22
1554.156473190866
 32
0.0
 13
2096.648282207841
 23
1554.156473190866
 33
0.0
210
0.0
220
0.0
230
1.0
  0
SOLID
  5
7E0
330
7DA
100
AcDbEntity
  8
HATCH
  6
CONTINUOUS
 62
    32
100
AcDbTrace
 10
1744.935783060682
 20
1652.635547265597
 30
0.0
 11
1837.005324440929
 21
1554.156473190866
 31
0.0
 12
1848.899377979993
 22
1570.339853579261
 32
0.0
 13
1848.899377979993
 23
1570.339853579261
 33
0.0
  0
SOLID
  5
7E1
330
7DA
100
AcDbEntity
  8
HATCH
  6
CONTINUOUS
 62
    32
100
AcDbTrace
 10
2169.320254719668
 20
1658.735987084971
 30
0.0
 11
2084.754228668774
 21
1570.33985357926
 31
0.0
 12
2188.717823588087
 22
1652.635547265596
 32
0.0
 13
2188.717823588087
 23
1652.635547265596
 33
0.0
210
0.0
220
0.0
230
1.0
  0
SOLID
  5
7E2
330
7DA
100
AcDbEntity
  8
HATCH
  6
CONTINUOUS
 62
    32
100
AcDbTrace
 10
1764.3333519291
 20
1658.735987084972
 30
0.0
 11
1744.935783060682
 21
1652.635547265597
 31
0.0
 12
1848.899377979993
 22
1570.339853579261
 32
0.0
 13
1848.899377979993
 23
1570.339853579261
 33
0.0
210
0.0
220
0.0
230
1.0
  0
SOLID
  5
7E3
330
7DA
100
AcDbEntity
  8
HATCH
  6
CONTINUOUS
 62
    32
100
AcDbTrace
 10
2196.601345849037
 20
1777.98795246748
 30
0.0
 11
2169.320254719668
 21
1658.735987084971
 31
0.0
 12
2188.717823588087
 22
1652.635547265596
 32
0.0
 13
2188.717823588087
 23
1652.635547265596
 33
0.0
210
0.0
220
0.0
230
1.0
  0
SOLID
  5
7E4
330
7DA
100
AcDbEntity
  8
HATCH
  6
CONTINUOUS
 62
    32
100
AcDbTrace
 10
1737.052260799732
 20
1777.987952467481
 30
0.0
 11
1744.935783060682
 21
1652.635547265597
 31
0.0
 12
1764.3333519291
 22
1658.735987084972
 32
0.0
 13
1764.3333519291
 23
1658.735987084972
 33
0.0
210
0.0
220
0.0
230
1.0
  0
SOLID
  5
7E5
330
7DA
100
AcDbEntity
  8
HATCH
  6
CONTINUOUS
 62
    32
100
AcDbTrace
 10
2216.261710187904
 20
1784.606236403608
 30
0.0
 11
2196.601345849037
 21
1777.98795246748
 31
0.0
 12
2188.717823588087
 22
1652.635547265596
 32
0.0
 13
2188.717823588087
 23
1652.635547265596
 33
0.0
210
0.0
220
0.0
230
1.0
  0
SOLID
  5
7E6
330
7DA
100
AcDbEntity
  8
HATCH
  6
CONTINUOUS
 62
    32
100
AcDbTrace
 10
1717.391896460866
 20
1784.606236403608
 30
0.0
 11
1744.935783060682
 21
1652.635547265597
 31
0.0
 12
1737.052260799732
 22
1777.987952467481
 32
0.0
 13
1737.052260799732
 23
1777.987952467481
 33
0.0
210
0.0
220
0.0
230
1.0
  0
SOLID
  5
7E7
330
7DA
100
AcDbEntity
  8
HATCH
  6
CONTINUOUS
 62
    32
100
AcDbTrace
 10
2158.879743684125
 20
1894.359641081645
 30
0.0
 11
2196.601345849037
 21
1777.98795246748
 31
0.0
 12
2216.261710187904
 22
1784.606236403608
 32
0.0
 13
2216.261710187904
 23
1784.606236403608
 33
0.0
210
0.0
220
0.0
230
1.0
  0
SOLID
  5
7E8
330
7DA
100
AcDbEntity
  8
HATCH
  6
CONTINUOUS
 62
    32
100
AcDbTrace
 10
1774.773862964645
 20
1894.359641081646
 30
0.0
 11
1717.391896460866
 21
1784.606236403608
 31
0.0
 12
1737.052260799732
 22
1777.987952467481
 32
0.0
 13
1737.052260799732
 23
1777.987952467481
 33
0.0
210
0.0
220
0.0
230
1.0
  0
SOLID
  5
7E9
330
7DA
100
AcDbEntity
  8
HATCH
  6
CONTINUOUS
 62
    32
100
AcDbTrace
 10
2171.270211302827
 20
1911.691615219029
 30
0.0
 11
2158.879743684125
 21
1894.359641081645
 31
0.0
 12
2216.261710187904
 22
1784.606236403608
 32
0.0
 13
2216.261710187904
 23
1784.606236403608
 33
0.0
210
0.0
220
0.0
230
1.0
  0
SOLID
  5
7EA
330
7DA
100
AcDbEntity
  8
HATCH
  6
CONTINUOUS
 62
    32
100
AcDbTrace
 10
1762.383395345944
 20
1911.69161521903
 30
0.0
 11
1717.391896460866
 21
1784.606236403608
 31
0.0
 12
1774.773862964645
 22
1894.359641081646
 32
0.0
 13
1774.773862964645
 23
1894.359641081646
 33
0.0
210
0.0
220
0.0
230
1.0
  0
SOLID
  5
7EB
330
7DA
100
AcDbEntity
  8
HATCH
  6
CONTINUOUS
 62
    32
100
AcDbTrace
 10
2066.826803324385
 20
1974.929768001776
 30
0.0
 11
2158.879743684125
 21
1894.359641081645
 31
0.0
 12
2171.270211302827
 22
1911.691615219029
 32
0.0
 13
2171.270211302827
 23
1911.691615219029
 33
0.0
210
0.0
220
0.0
230
1.0
  0
SOLID
  5
7EC
330
7DA
100
AcDbEntity
  8
HATCH
  6
CONTINUOUS
 62
    32
100
AcDbTrace
 10
1866.826803324386
 20
1974.929768001776
 30
0.0
 11
1762.383395345944
 21
1911.69161521903
 31
0.0
 12
1774.773862964645
 22
1894.359641081646
 32
0.0
 13
1774.773862964645
 23
1894.359641081646
 33
0.0
210
0.0
220
0.0
230
1.0
  0
SOLID
  5
7ED
330
7DA
100
AcDbEntity
  8
HATCH
  6
CONTINUOUS
 62
    32
100
AcDbTrace
 10
2066.826803324385
 20
1996.935400977488
 30
0.0
 11
2066.826803324385
 21
1974.929768001776
 31
0.0
 12
2171.270211302827
 22
1911.691615219029
 32
0.0
 13
2171.270211302827
 23
1911.691615219029
 33
0.0
210
0.0
220
0.0
230
1.0
  0
SOLID
  5
7EE
330
7DA
100
AcDbEntity
  8
HATCH
  6
CONTINUOUS
 62
    32
100
AcDbTrace
 10
1866.826803324386
 20
1996.935400977488
 30
0.0
 11
1762.383395345944
 21
1911.69161521903
 31
0.0
 12
1866.826803324386
 22
1974.929768001776
 32
0.0
 13
1866.826803324386
 23
1974.929768001776
 33
0.0
210
0.0
220
0.0
230
1.0
  0
ENDBLK
  5
7F0
330
7DA
100
AcDbEntity
  8
0
100
AcDbBlockEnd
  0
BLOCK
  5
7F5
330
7F1
100
AcDbEntity
  8
0
100
AcDbBlockBegin
  2
*U15
 70
     1
 10
0.0
 20
0.0
 30
0.0
  3
*U15
  1

  0
SOLID
  5
7F2
330
7F1
100
AcDbEntity
  8
HATCH
  6
CONTINUOUS
 62
    32
100
AcDbTrace
 10
1866.826803324386
 20
1996.935400977488
 30
0.0
 11
1866.826803324386
 21
1946.935400977484
 31
0.0
 12
1966.826803324385
 22
1946.935400977485
 32
0.0
 13
1966.826803324385
 23
1946.935400977485
 33
0.0
210
0.0
220
0.0
230
1.0
  0
SOLID
  5
7F3
330
7F1
100
AcDbEntity
  8
HATCH
  6
CONTINUOUS
 62
    32
100
AcDbTrace
 10
1866.826803324386
 20
1996.935400977488
 30
0.0
 11
1966.826803324385
 21
2967.806616229696
 31
0.0
 12
1866.826803324387
 22
2967.806616229696
 32
0.0
 13
1866.826803324387
 23
2967.806616229696
 33
0.0
210
0.0
220
0.0
230
1.0
  0
SOLID
  5
7F4
330
7F1
100
AcDbEntity
  8
HATCH
  6
CONTINUOUS
 62
    32
100
AcDbTrace
 10
1966.826803324385
 20
2967.806616229696
 30
0.0
 11
1866.826803324386
 21
1996.935400977488
 31
0.0
 12
1966.826803324385
 22
1946.935400977485
 32
0.0
 13
1966.826803324385
 23
1946.935400977485
 33
0.0
  0
ENDBLK
  5
7F6
330
7F1
100
AcDbEntity
  8
0
100
AcDbBlockEnd
  0
BLOCK
  5
7FC
330
7F7
100
AcDbEntity
  8
0
100
AcDbBlockBegin
  2
*U16
 70
     1
 10
0.0
 20
0.0
 30
0.0
  3
*U16
  1

  0
SOLID
  5
7F8
330
7F7
100
AcDbEntity
  8
HATCH
  6
CONTINUOUS
 62
    32
100
AcDbTrace
 10
2016.826803324385
 20
2457.37100860359
 30
0.0
 11
2066.826803324385
 21
2967.806616229696
 31
0.0
 12
1966.826803324385
 22
2967.806616229696
 32
0.0
 13
1966.826803324385
 23
2967.806616229696
 33
0.0
210
0.0
220
0.0
230
1.0
  0
SOLID
  5
7F9
330
7F7
100
AcDbEntity
  8
HATCH
  6
CONTINUOUS
 62
    32
100
AcDbTrace
 10
2016.826803324385
 20
2457.37100860359
 30
0.0
 11
1966.826803324385
 21
2967.806616229696
 31
0.0
 12
1966.826803324385
 22
1946.935400977485
 32
0.0
 13
1966.826803324385
 23
1946.935400977485
 33
0.0
  0
SOLID
  5
7FA
330
7F7
100
AcDbEntity
  8
HATCH
  6
CONTINUOUS
 62
    32
100
AcDbTrace
 10
2016.826803324385
 20
2457.37100860359
 30
0.0
 11
1966.826803324385
 21
1946.935400977485
 31
0.0
 12
2066.826803324385
 22
1946.935400977485
 32
0.0
 13
2066.826803324385
 23
1946.935400977485
 33
0.0
  0
SOLID
  5
7FB
330
7F7
100
AcDbEntity
  8
HATCH
  6
CONTINUOUS
 62
    32
100
AcDbTrace
 10
2016.826803324385
 20
2457.37100860359
 30
0.0
 11
2066.826803324385
 21
1946.935400977485
 31
0.0
 12
2066.826803324385
 22
2967.806616229696
 32
0.0
 13
2066.826803324385
 23
2967.806616229696
 33
0.0
210
0.0
220
0.0
230
1.0
  0
ENDBLK
  5
7FD
330
7F7
100
AcDbEntity
  8
0
100
AcDbBlockEnd
  0
BLOCK
  5
803
330
7FE
100
AcDbEntity
  8
0
100
AcDbBlockBegin
  2
*U17
 70
     1
 10
0.0
 20
0.0
 30
0.0
  3
*U17
  1

  0
SOLID
  5
7FF
330
7FE
100
AcDbEntity
  8
HATCH
  6
CONTINUOUS
 62
     1
100
AcDbTrace
 10
2316.826803324385
 20
3417.806616229695
 30
0.0
 11
2316.826803324385
 21
3317.806616229695
 31
0.0
 12
3516.826803324387
 22
3417.806616229695
 32
0.0
 13
3516.826803324387
 23
3417.806616229695
 33
0.0
210
0.0
220
0.0
230
1.0
  0
SOLID
  5
800
330
7FE
100
AcDbEntity
  8
HATCH
  6
CONTINUOUS
 62
     1
100
AcDbTrace
 10
3516.826803324387
 20
3317.806616229694
 30
0.0
 11
3516.826803324387
 21
3417.806616229695
 31
0.0
 12
2316.826803324385
 22
3317.806616229695
 32
0.0
 13
2316.826803324385
 23
3317.806616229695
 33
0.0
210
0.0
220
0.0
230
1.0
  0
SOLID
  5
801
330
7FE
100
AcDbEntity
  8
HATCH
  6
CONTINUOUS
 62
     1
100
AcDbTrace
 10
3516.826803324387
 20
3217.806616229696
 30
0.0
 11
3516.826803324387
 21
3317.806616229695
 31
0.0
 12
2316.826803324385
 22
3217.806616229696
 32
0.0
 13
2316.826803324385
 23
3217.806616229696
 33
0.0
210
0.0
220
0.0
230
1.0
  0
SOLID
  5
802
330
7FE
100
AcDbEntity
  8
HATCH
  6
CONTINUOUS
 62
     1
100
AcDbTrace
 10
2316.826803324385
 20
3317.806616229695
 30
0.0
 11
2316.826803324385
 21
3217.806616229696
 31
0.0
 12
3516.826803324387
 22
3317.806616229695
 32
0.0
 13
3516.826803324387
 23
3317.806616229695
 33
0.0
  0
ENDBLK
  5
804
330
7FE
100
AcDbEntity
  8
0
100
AcDbBlockEnd
  0
BLOCK
  5
855
330
805
100
AcDbEntity
  8
0
100
AcDbBlockBegin
  2
*U18
 70
     1
 10
0.0
 20
0.0
 30
0.0
  3
*U18
  1

  0
SOLID
  5
806
330
805
100
AcDbEntity
  8
HATCH
  6
CONTINUOUS
 62
     3
100
AcDbTrace
 10
6313.826803324388
 20
4717.806616229696
 30
0.0
 11
6313.826803324388
 21
4740.99313930826
 31
0.0
 12
6313.826803324388
 22
4217.806616229696
 32
0.0
 13
6313.826803324388
 23
4217.806616229696
 33
0.0
210
0.0
220
0.0
230
1.0
  0
SOLID
  5
807
330
805
100
AcDbEntity
  8
HATCH
  6
CONTINUOUS
 62
     3
100
AcDbTrace
 10
6313.540923000349
 20
4746.640623531249
 30
0.0
 11
6313.826803324388
 21
4217.806616229696
 31
0.0
 12
6313.826803324388
 22
4740.99313930826
 32
0.0
 13
6313.826803324388
 23
4740.99313930826
 33
0.0
210
0.0
220
0.0
230
1.0
  0
SOLID
  5
808
330
805
100
AcDbEntity
  8
HATCH
  6
CONTINUOUS
 62
     3
100
AcDbTrace
 10
6313.826803324388
 20
4217.806616229696
 30
0.0
 11
6313.540923000349
 21
4746.640623531249
 31
0.0
 12
4016.826803324387
 22
4217.806616229696
 32
0.0
 13
4016.826803324387
 23
4217.806616229696
 33
0.0
210
0.0
220
0.0
230
1.0
  0
SOLID
  5
809
330
805
100
AcDbEntity
  8
HATCH
  6
CONTINUOUS
 62
     3
100
AcDbTrace
 10
6312.684916579427
 20
4752.255817661846
 30
0.0
 11
4016.826803324387
 21
4217.806616229696
 31
0.0
 12
6313.540923000349
 22
4746.640623531249
 32
0.0
 13
6313.540923000349
 23
4746.640623531249
 33
0.0
210
0.0
220
0.0
230
1.0
  0
SOLID
  5
80A
330
805
100
AcDbEntity
  8
HATCH
  6
CONTINUOUS
 62
     3
100
AcDbTrace
 10
4016.826803324387
 20
4217.806616229696
 30
0.0
 11
6312.684916579427
 21
4752.255817661846
 31
0.0
 12
4016.826803324387
 22
4740.99313930825
 32
0.0
 13
4016.826803324387
 23
4740.99313930825
 33
0.0
210
0.0
220
0.0
230
1.0
  0
SOLID
  5
80B
330
805
100
AcDbEntity
  8
HATCH
  6
CONTINUOUS
 62
     3
100
AcDbTrace
 10
6311.263678369479
 20
4757.806616229697
 30
0.0
 11
4016.826803324387
 21
4740.99313930825
 31
0.0
 12
6312.684916579427
 22
4752.255817661846
 32
0.0
 13
6312.684916579427
 23
4752.255817661846
 33
0.0
210
0.0
220
0.0
230
1.0
  0
SOLID
  5
80C
330
805
100
AcDbEntity
  8
HATCH
  6
CONTINUOUS
 62
     3
100
AcDbTrace
 10
4016.826803324387
 20
4740.99313930825
 30
0.0
 11
6311.263678369479
 21
4757.806616229697
 31
0.0
 12
4017.207333515213
 22
4747.507240738896
 32
0.0
 13
4017.207333515213
 23
4747.507240738896
 33
0.0
210
0.0
220
0.0
230
1.0
  0
SOLID
  5
80D
330
805
100
AcDbEntity
  8
HATCH
  6
CONTINUOUS
 62
     3
100
AcDbTrace
 10
6309.032903535506
 20
4763.857005860593
 30
0.0
 11
4017.207333515213
 21
4747.507240738896
 31
0.0
 12
6311.263678369479
 22
4757.806616229697
 32
0.0
 13
6311.263678369479
 23
4757.806616229697
 33
0.0
210
0.0
220
0.0
230
1.0
  0
SOLID
  5
80E
330
805
100
AcDbEntity
  8
HATCH
  6
CONTINUOUS
 62
     3
100
AcDbTrace
 10
4017.207333515213
 20
4747.507240738896
 30
0.0
 11
6309.032903535506
 21
4763.857005860593
 31
0.0
 12
4018.346028023166
 22
4753.971765924327
 32
0.0
 13
4018.346028023166
 23
4753.971765924327
 33
0.0
210
0.0
220
0.0
230
1.0
  0
SOLID
  5
80F
330
805
100
AcDbEntity
  8
HATCH
  6
CONTINUOUS
 62
     3
100
AcDbTrace
 10
6306.130851528955
 20
4769.746187421215
 30
0.0
 11
4018.346028023166
 21
4753.971765924327
 31
0.0
 12
6309.032903535506
 22
4763.857005860593
 32
0.0
 13
6309.032903535506
 23
4763.857005860593
 33
0.0
210
0.0
220
0.0
230
1.0
  0
SOLID
  5
810
330
805
100
AcDbEntity
  8
HATCH
  6
CONTINUOUS
 62
     3
100
AcDbTrace
 10
4018.346028023166
 20
4753.971765924327
 30
0.0
 11
6306.130851528955
 21
4769.746187421215
 31
0.0
 12
4020.23422069548
 22
4760.3375159245
 32
0.0
 13
4020.23422069548
 23
4760.3375159245
 33
0.0
210
0.0
220
0.0
230
1.0
  0
SOLID
  5
811
330
805
100
AcDbEntity
  8
HATCH
  6
CONTINUOUS
 62
     3
100
AcDbTrace
 10
6302.577984077188
 20
4775.432637593854
 30
0.0
 11
4020.23422069548
 21
4760.3375159245
 31
0.0
 12
6306.130851528955
 22
4769.746187421215
 32
0.0
 13
6306.130851528955
 23
4769.746187421215
 33
0.0
210
0.0
220
0.0
230
1.0
  0
SOLID
  5
812
330
805
100
AcDbEntity
  8
HATCH
  6
CONTINUOUS
 62
     3
100
AcDbTrace
 10
4020.23422069548
 20
4760.3375159245
 30
0.0
 11
6302.577984077188
 21
4775.432637593854
 31
0.0
 12
4022.857541245797
 22
4766.556043538169
 32
0.0
 13
4022.857541245797
 23
4766.556043538169
 33
0.0
210
0.0
220
0.0
230
1.0
  0
SOLID
  5
813
330
805
100
AcDbEntity
  8
HATCH
  6
CONTINUOUS
 62
     3
100
AcDbTrace
 10
6298.399351663441
 20
4780.876262475015
 30
0.0
 11
4022.857541245797
 21
4766.556043538169
 31
0.0
 12
6302.577984077188
 22
4775.432637593854
 32
0.0
 13
6302.577984077188
 23
4775.432637593854
 33
0.0
210
0.0
220
0.0
230
1.0
  0
SOLID
  5
814
330
805
100
AcDbEntity
  8
HATCH
  6
CONTINUOUS
 62
     3
100
AcDbTrace
 10
4022.857541245797
 20
4766.556043538169
 30
0.0
 11
6298.399351663441
 21
4780.876262475015
 31
0.0
 12
4026.196024620722
 22
4772.580022015346
 32
0.0
 13
4026.196024620722
 23
4772.580022015346
 33
0.0
210
0.0
220
0.0
230
1.0
  0
SOLID
  5
815
330
805
100
AcDbEntity
  8
HATCH
  6
CONTINUOUS
 62
     3
100
AcDbTrace
 10
6293.624416901412
 20
4786.038680268672
 30
0.0
 11
4026.196024620722
 21
4772.580022015346
 31
0.0
 12
6298.399351663441
 22
4780.876262475015
 32
0.0
 13
6298.399351663441
 23
4780.876262475015
 33
0.0
210
0.0
220
0.0
230
1.0
  0
SOLID
  5
816
330
805
100
AcDbEntity
  8
HATCH
  6
CONTINUOUS
 62
     3
100
AcDbTrace
 10
4026.196024620722
 20
4772.580022015346
 30
0.0
 11
6293.624416901412
 21
4786.038680268672
 31
0.0
 12
4030.224262945943
 22
4778.363605242439
 32
0.0
 13
4030.224262945943
 23
4778.363605242439
 33
0.0
210
0.0
220
0.0
230
1.0
  0
SOLID
  5
817
330
805
100
AcDbEntity
  8
HATCH
  6
CONTINUOUS
 62
     3
100
AcDbTrace
 10
6288.286846800875
 20
4790.883491907829
 30
0.0
 11
4030.224262945943
 21
4778.363605242439
 31
0.0
 12
6293.624416901412
 22
4786.038680268672
 32
0.0
 13
6293.624416901412
 23
4786.038680268672
 33
0.0
210
0.0
220
0.0
230
1.0
  0
SOLID
  5
818
330
805
100
AcDbEntity
  8
HATCH
  6
CONTINUOUS
 62
     3
100
AcDbTrace
 10
4030.224262945943
 20
4778.363605242439
 30
0.0
 11
6288.286846800875
 21
4790.883491907829
 31
0.0
 12
4034.911598895488
 22
4783.86277665887
 32
0.0
 13
4034.911598895488
 23
4783.86277665887
 33
0.0
210
0.0
220
0.0
230
1.0
  0
SOLID
  5
819
330
805
100
AcDbEntity
  8
HATCH
  6
CONTINUOUS
 62
     3
100
AcDbTrace
 10
6282.424275389033
 20
4795.376537696292
 30
0.0
 11
4034.911598895488
 21
4783.86277665887
 31
0.0
 12
6288.286846800875
 22
4790.883491907829
 32
0.0
 13
6288.286846800875
 23
4790.883491907829
 33
0.0
210
0.0
220
0.0
230
1.0
  0
SOLID
  5
81A
330
805
100
AcDbEntity
  8
HATCH
  6
CONTINUOUS
 62
     3
100
AcDbTrace
 10
4034.911598895488
 20
4783.86277665887
 30
0.0
 11
6282.424275389033
 21
4795.376537696292
 31
0.0
 12
4040.222359012489
 22
4789.035684249668
 32
0.0
 13
4040.222359012489
 23
4789.035684249668
 33
0.0
210
0.0
220
0.0
230
1.0
  0
SOLID
  5
81B
330
805
100
AcDbEntity
  8
HATCH
  6
CONTINUOUS
 62
     3
100
AcDbTrace
 10
6276.078038361318
 20
4799.486138161144
 30
0.0
 11
4040.222359012489
 21
4789.035684249668
 31
0.0
 12
6282.424275389033
 22
4795.376537696292
 32
0.0
 13
6282.424275389033
 23
4795.376537696292
 33
0.0
  0
SOLID
  5
81C
330
805
100
AcDbEntity
  8
HATCH
  6
CONTINUOUS
 62
     3
100
AcDbTrace
 10
4040.222359012489
 20
4789.035684249668
 30
0.0
 11
6276.078038361318
 21
4799.486138161144
 31
0.0
 12
4046.116125205733
 22
4793.84295906458
 32
0.0
 13
4046.116125205733
 23
4793.84295906458
 33
0.0
210
0.0
220
0.0
230
1.0
  0
SOLID
  5
81D
330
805
100
AcDbEntity
  8
HATCH
  6
CONTINUOUS
 62
     3
100
AcDbTrace
 10
6269.292881632529
 20
4803.183317417709
 30
0.0
 11
4046.116125205733
 21
4793.84295906458
 31
0.0
 12
6276.078038361318
 22
4799.486138161144
 32
0.0
 13
6276.078038361318
 23
4799.486138161144
 33
0.0
210
0.0
220
0.0
230
1.0
  0
SOLID
  5
81E
330
805
100
AcDbEntity
  8
HATCH
  6
CONTINUOUS
 62
     3
100
AcDbTrace
 10
4046.116125205733
 20
4793.84295906458
 30
0.0
 11
6269.292881632529
 21
4803.183317417709
 31
0.0
 12
4052.548042355733
 22
4798.248014839552
 32
0.0
 13
4052.548042355733
 23
4798.248014839552
 33
0.0
210
0.0
220
0.0
230
1.0
  0
SOLID
  5
81F
330
805
100
AcDbEntity
  8
HATCH
  6
CONTINUOUS
 62
     3
100
AcDbTrace
 10
6262.11664584328
 20
4806.442007472101
 30
0.0
 11
4052.548042355733
 21
4798.248014839552
 31
0.0
 12
6269.292881632529
 22
4803.183317417709
 32
0.0
 13
6269.292881632529
 23
4803.183317417709
 33
0.0
210
0.0
220
0.0
230
1.0
  0
SOLID
  5
820
330
805
100
AcDbEntity
  8
HATCH
  6
CONTINUOUS
 62
     3
100
AcDbTrace
 10
4052.548042355733
 20
4798.248014839552
 30
0.0
 11
6262.11664584328
 21
4806.442007472101
 31
0.0
 12
4059.469159689283
 22
4802.217326440294
 32
0.0
 13
4059.469159689283
 23
4802.217326440294
 33
0.0
  0
SOLID
  5
821
330
805
100
AcDbEntity
  8
HATCH
  6
CONTINUOUS
 62
     3
100
AcDbTrace
 10
6254.599929046213
 20
4809.2392320209
 30
0.0
 11
4059.469159689283
 21
4802.217326440294
 31
0.0
 12
6262.11664584328
 22
4806.442007472101
 32
0.0
 13
6262.11664584328
 23
4806.442007472101
 33
0.0
  0
SOLID
  5
822
330
805
100
AcDbEntity
  8
HATCH
  6
CONTINUOUS
 62
     3
100
AcDbTrace
 10
4059.469159689283
 20
4802.217326440294
 30
0.0
 11
6254.599929046213
 21
4809.2392320209
 31
0.0
 12
4066.826803324388
 22
4805.720685008784
 32
0.0
 13
4066.826803324388
 23
4805.720685008784
 33
0.0
  0
SOLID
  5
823
330
805
100
AcDbEntity
  8
HATCH
  6
CONTINUOUS
 62
     3
100
AcDbTrace
 10
6246.795729950311
 20
4811.555268451986
 30
0.0
 11
4066.826803324388
 21
4805.720685008784
 31
0.0
 12
6254.599929046213
 22
4809.2392320209
 32
0.0
 13
6254.599929046213
 23
4809.2392320209
 33
0.0
210
0.0
220
0.0
230
1.0
  0
SOLID
  5
824
330
805
100
AcDbEntity
  8
HATCH
  6
CONTINUOUS
 62
     3
100
AcDbTrace
 10
4066.826803324388
 20
4805.720685008784
 30
0.0
 11
6246.795729950311
 21
4811.555268451986
 31
0.0
 12
4074.564977150317
 22
4808.731427870933
 32
0.0
 13
4074.564977150317
 23
4808.731427870933
 33
0.0
210
0.0
220
0.0
230
1.0
  0
SOLID
  5
825
330
805
100
AcDbEntity
  8
HATCH
  6
CONTINUOUS
 62
     3
100
AcDbTrace
 10
6238.759074238718
 20
4813.37378690431
 30
0.0
 11
4074.564977150317
 21
4808.731427870933
 31
0.0
 12
6246.795729950311
 22
4811.555268451986
 32
0.0
 13
6246.795729950311
 23
4811.555268451986
 33
0.0
210
0.0
220
0.0
230
1.0
  0
SOLID
  5
826
330
805
100
AcDbEntity
  8
HATCH
  6
CONTINUOUS
 62
     3
100
AcDbTrace
 10
4074.564977150317
 20
4808.731427870933
 30
0.0
 11
6238.759074238718
 21
4813.37378690431
 31
0.0
 12
4082.624788991821
 22
4811.226641455622
 32
0.0
 13
4082.624788991821
 23
4811.226641455622
 33
0.0
210
0.0
220
0.0
230
1.0
  0
SOLID
  5
827
330
805
100
AcDbEntity
  8
HATCH
  6
CONTINUOUS
 62
     3
100
AcDbTrace
 10
6230.546626594797
 20
4814.681965406148
 30
0.0
 11
4082.624788991821
 21
4811.226641455622
 31
0.0
 12
6238.759074238718
 22
4813.37378690431
 32
0.0
 13
6238.759074238718
 23
4813.37378690431
 33
0.0
210
0.0
220
0.0
230
1.0
  0
SOLID
  5
828
330
805
100
AcDbEntity
  8
HATCH
  6
CONTINUOUS
 62
     3
100
AcDbTrace
 10
4082.624788991821
 20
4811.226641455622
 30
0.0
 11
6230.546626594797
 21
4814.681965406148
 31
0.0
 12
4090.944898814135
 22
4813.187335680823
 32
0.0
 13
4090.944898814135
 23
4813.187335680823
 33
0.0
210
0.0
220
0.0
230
1.0
  0
SOLID
  5
829
330
805
100
AcDbEntity
  8
HATCH
  6
CONTINUOUS
 62
     3
100
AcDbTrace
 10
6222.216291171984
 20
4815.470580279987
 30
0.0
 11
4090.944898814135
 21
4813.187335680823
 31
0.0
 12
6230.546626594797
 22
4814.681965406148
 32
0.0
 13
6230.546626594797
 23
4814.681965406148
 33
0.0
210
0.0
220
0.0
230
1.0
  0
SOLID
  5
82A
330
805
100
AcDbEntity
  8
HATCH
  6
CONTINUOUS
 62
     3
100
AcDbTrace
 10
4090.944898814135
 20
4813.187335680823
 30
0.0
 11
6222.216291171984
 21
4815.470580279987
 31
0.0
 12
4099.461985557694
 22
4814.598588479581
 32
0.0
 13
4099.461985557694
 23
4814.598588479581
 33
0.0
210
0.0
220
0.0
230
1.0
  0
SOLID
  5
82B
330
805
100
AcDbEntity
  8
HATCH
  6
CONTINUOUS
 62
     3
100
AcDbTrace
 10
6213.826803324415
 20
4815.734071176624
 30
0.0
 11
4099.461985557694
 21
4814.598588479581
 31
0.0
 12
6222.216291171984
 22
4815.470580279987
 32
0.0
 13
6222.216291171984
 23
4815.470580279987
 33
0.0
210
0.0
220
0.0
230
1.0
  0
SOLID
  5
82C
330
805
100
AcDbEntity
  8
HATCH
  6
CONTINUOUS
 62
     3
100
AcDbTrace
 10
4099.461985557694
 20
4814.598588479581
 30
0.0
 11
6213.826803324415
 21
4815.734071176624
 31
0.0
 12
4108.111229049622
 22
4815.44965936596
 32
0.0
 13
4108.111229049622
 23
4815.44965936596
 33
0.0
210
0.0
220
0.0
230
1.0
  0
SOLID
  5
82D
330
805
100
AcDbEntity
  8
HATCH
  6
CONTINUOUS
 62
     3
100
AcDbTrace
 10
4116.826803324387
 20
4815.734071176623
 30
0.0
 11
4108.111229049622
 21
4815.44965936596
 31
0.0
 12
6213.826803324415
 22
4815.734071176624
 32
0.0
 13
6213.826803324415
 23
4815.734071176624
 33
0.0
210
0.0
220
0.0
230
1.0
  0
SOLID
  5
82E
330
805
100
AcDbEntity
  8
HATCH
  6
CONTINUOUS
 62
     3
100
AcDbTrace
 10
6313.826803324388
 20
4217.806616229696
 30
0.0
 11
4016.826803324387
 21
4217.806616229696
 31
0.0
 12
6313.826803324388
 22
3694.620093151133
 32
0.0
 13
6313.826803324388
 23
3694.620093151133
 33
0.0
210
0.0
220
0.0
230
1.0
  0
SOLID
  5
82F
330
805
100
AcDbEntity
  8
HATCH
  6
CONTINUOUS
 62
     3
100
AcDbTrace
 10
4016.826803324387
 20
3694.620093151135
 30
0.0
 11
6313.826803324388
 21
3694.620093151133
 31
0.0
 12
4016.826803324387
 22
4217.806616229696
 32
0.0
 13
4016.826803324387
 23
4217.806616229696
 33
0.0
210
0.0
220
0.0
230
1.0
  0
SOLID
  5
830
330
805
100
AcDbEntity
  8
HATCH
  6
CONTINUOUS
 62
     3
100
AcDbTrace
 10
6313.826803324388
 20
3694.620093151133
 30
0.0
 11
4016.826803324387
 21
3694.620093151135
 31
0.0
 12
6313.540923000349
 22
3688.972608928144
 32
0.0
 13
6313.540923000349
 23
3688.972608928144
 33
0.0
210
0.0
220
0.0
230
1.0
  0
SOLID
  5
831
330
805
100
AcDbEntity
  8
HATCH
  6
CONTINUOUS
 62
     3
100
AcDbTrace
 10
4017.207333515213
 20
3688.105991720496
 30
0.0
 11
6313.540923000349
 21
3688.972608928144
 31
0.0
 12
4016.826803324387
 22
3694.620093151135
 32
0.0
 13
4016.826803324387
 23
3694.620093151135
 33
0.0
210
0.0
220
0.0
230
1.0
  0
SOLID
  5
832
330
805
100
AcDbEntity
  8
HATCH
  6
CONTINUOUS
 62
     3
100
AcDbTrace
 10
6313.540923000349
 20
3688.972608928144
 30
0.0
 11
4017.207333515213
 21
3688.105991720496
 31
0.0
 12
6312.684916579425
 22
3683.357414797547
 32
0.0
 13
6312.684916579425
 23
3683.357414797547
 33
0.0
210
0.0
220
0.0
230
1.0
  0
SOLID
  5
833
330
805
100
AcDbEntity
  8
HATCH
  6
CONTINUOUS
 62
     3
100
AcDbTrace
 10
4018.346028023166
 20
3681.641466535065
 30
0.0
 11
6312.684916579425
 21
3683.357414797547
 31
0.0
 12
4017.207333515213
 22
3688.105991720496
 32
0.0
 13
4017.207333515213
 23
3688.105991720496
 33
0.0
210
0.0
220
0.0
230
1.0
  0
SOLID
  5
834
330
805
100
AcDbEntity
  8
HATCH
  6
CONTINUOUS
 62
     3
100
AcDbTrace
 10
6312.684916579425
 20
3683.357414797547
 30
0.0
 11
4018.346028023166
 21
3681.641466535065
 31
0.0
 12
6311.263678369479
 22
3677.806616229696
 32
0.0
 13
6311.263678369479
 23
3677.806616229696
 33
0.0
210
0.0
220
0.0
230
1.0
  0
SOLID
  5
835
330
805
100
AcDbEntity
  8
HATCH
  6
CONTINUOUS
 62
     3
100
AcDbTrace
 10
4020.23422069548
 20
3675.275716534892
 30
0.0
 11
6311.263678369479
 21
3677.806616229696
 31
0.0
 12
4018.346028023166
 22
3681.641466535065
 32
0.0
 13
4018.346028023166
 23
3681.641466535065
 33
0.0
210
0.0
220
0.0
230
1.0
  0
SOLID
  5
836
330
805
100
AcDbEntity
  8
HATCH
  6
CONTINUOUS
 62
     3
100
AcDbTrace
 10
6311.263678369479
 20
3677.806616229696
 30
0.0
 11
4020.23422069548
 21
3675.275716534892
 31
0.0
 12
6308.922182345401
 22
3671.500258406943
 32
0.0
 13
6308.922182345401
 23
3671.500258406943
 33
0.0
210
0.0
220
0.0
230
1.0
  0
SOLID
  5
837
330
805
100
AcDbEntity
  8
HATCH
  6
CONTINUOUS
 62
     3
100
AcDbTrace
 10
4022.857541245797
 20
3669.057188921223
 30
0.0
 11
6308.922182345401
 21
3671.500258406943
 31
0.0
 12
4020.23422069548
 22
3675.275716534892
 32
0.0
 13
4020.23422069548
 23
3675.275716534892
 33
0.0
210
0.0
220
0.0
230
1.0
  0
SOLID
  5
838
330
805
100
AcDbEntity
  8
HATCH
  6
CONTINUOUS
 62
     3
100
AcDbTrace
 10
6308.922182345401
 20
3671.500258406943
 30
0.0
 11
4022.857541245797
 21
3669.057188921223
 31
0.0
 12
6305.851532230333
 22
3665.371174414531
 32
0.0
 13
6305.851532230333
 23
3665.371174414531
 33
0.0
  0
SOLID
  5
839
330
805
100
AcDbEntity
  8
HATCH
  6
CONTINUOUS
 62
     3
100
AcDbTrace
 10
4026.196024620722
 20
3663.033210444046
 30
0.0
 11
6305.851532230333
 21
3665.371174414531
 31
0.0
 12
4022.857541245797
 22
3669.057188921223
 32
0.0
 13
4022.857541245797
 23
3669.057188921223
 33
0.0
  0
SOLID
  5
83A
330
805
100
AcDbEntity
  8
HATCH
  6
CONTINUOUS
 62
     3
100
AcDbTrace
 10
6305.851532230333
 20
3665.371174414531
 30
0.0
 11
4026.196024620722
 21
3663.033210444046
 31
0.0
 12
6302.075272565726
 22
3659.466359666045
 32
0.0
 13
6302.075272565726
 23
3659.466359666045
 33
0.0
210
0.0
220
0.0
230
1.0
  0
SOLID
  5
83B
330
805
100
AcDbEntity
  8
HATCH
  6
CONTINUOUS
 62
     3
100
AcDbTrace
 10
4030.224262945943
 20
3657.249627216952
 30
0.0
 11
6302.075272565726
 21
3659.466359666045
 31
0.0
 12
4026.196024620722
 22
3663.033210444046
 32
0.0
 13
4026.196024620722
 23
3663.033210444046
 33
0.0
210
0.0
220
0.0
230
1.0
  0
SOLID
  5
83C
330
805
100
AcDbEntity
  8
HATCH
  6
CONTINUOUS
 62
     3
100
AcDbTrace
 10
6302.075272565726
 20
3659.466359666045
 30
0.0
 11
4030.224262945943
 21
3657.249627216952
 31
0.0
 12
6297.622358230476
 22
3653.831089966416
 32
0.0
 13
6297.622358230476
 23
3653.831089966416
 33
0.0
210
0.0
220
0.0
230
1.0
  0
SOLID
  5
83D
330
805
100
AcDbEntity
  8
HATCH
  6
CONTINUOUS
 62
     3
100
AcDbTrace
 10
4034.911598895488
 20
3651.750455800521
 30
0.0
 11
6297.622358230476
 21
3653.831089966416
 31
0.0
 12
4030.224262945943
 22
3657.249627216952
 32
0.0
 13
4030.224262945943
 23
3657.249627216952
 33
0.0
210
0.0
220
0.0
230
1.0
  0
SOLID
  5
83E
330
805
100
AcDbEntity
  8
HATCH
  6
CONTINUOUS
 62
     3
100
AcDbTrace
 10
6297.622358230476
 20
3653.831089966416
 30
0.0
 11
4034.911598895488
 21
3651.750455800521
 31
0.0
 12
6292.52693242626
 22
3648.508574354796
 32
0.0
 13
6292.52693242626
 23
3648.508574354796
 33
0.0
210
0.0
220
0.0
230
1.0
  0
SOLID
  5
83F
330
805
100
AcDbEntity
  8
HATCH
  6
CONTINUOUS
 62
     3
100
AcDbTrace
 10
4040.222359012489
 20
3646.577548209723
 30
0.0
 11
6292.52693242626
 21
3648.508574354796
 31
0.0
 12
4034.911598895488
 22
3651.750455800521
 32
0.0
 13
4034.911598895488
 23
3651.750455800521
 33
0.0
  0
SOLID
  5
840
330
805
100
AcDbEntity
  8
HATCH
  6
CONTINUOUS
 62
     3
100
AcDbTrace
 10
6292.52693242626
 20
3648.508574354796
 30
0.0
 11
4040.222359012489
 21
3646.577548209723
 31
0.0
 12
6286.828064880847
 22
3643.539623794584
 32
0.0
 13
6286.828064880847
 23
3643.539623794584
 33
0.0
210
0.0
220
0.0
230
1.0
  0
SOLID
  5
841
330
805
100
AcDbEntity
  8
HATCH
  6
CONTINUOUS
 62
     3
100
AcDbTrace
 10
4046.116125205733
 20
3641.770273394812
 30
0.0
 11
6286.828064880847
 21
3643.539623794584
 31
0.0
 12
4040.222359012489
 22
3646.577548209723
 32
0.0
 13
4040.222359012489
 23
3646.577548209723
 33
0.0
210
0.0
220
0.0
230
1.0
  0
SOLID
  5
842
330
805
100
AcDbEntity
  8
HATCH
  6
CONTINUOUS
 62
     3
100
AcDbTrace
 10
6286.828064880847
 20
3643.539623794584
 30
0.0
 11
4046.116125205733
 21
3641.770273394812
 31
0.0
 12
6280.569452276741
 22
3638.962338250954
 32
0.0
 13
6280.569452276741
 23
3638.962338250954
 33
0.0
210
0.0
220
0.0
230
1.0
  0
SOLID
  5
843
330
805
100
AcDbEntity
  8
HATCH
  6
CONTINUOUS
 62
     3
100
AcDbTrace
 10
4052.548042355733
 20
3637.365217619839
 30
0.0
 11
6280.569452276741
 21
3638.962338250954
 31
0.0
 12
4046.116125205733
 22
3641.770273394812
 32
0.0
 13
4046.116125205733
 23
3641.770273394812
 33
0.0
210
0.0
220
0.0
230
1.0
  0
SOLID
  5
844
330
805
100
AcDbEntity
  8
HATCH
  6
CONTINUOUS
 62
     3
100
AcDbTrace
 10
6280.569452276741
 20
3638.962338250954
 30
0.0
 11
4052.548042355733
 21
3637.365217619839
 31
0.0
 12
6273.799083202151
 22
3634.811814555257
 32
0.0
 13
6273.799083202151
 23
3634.811814555257
 33
0.0
210
0.0
220
0.0
230
1.0
  0
SOLID
  5
845
330
805
100
AcDbEntity
  8
HATCH
  6
CONTINUOUS
 62
     3
100
AcDbTrace
 10
4059.469159689283
 20
3633.395906019099
 30
0.0
 11
6273.799083202151
 21
3634.811814555257
 31
0.0
 12
4052.548042355733
 22
3637.365217619839
 32
0.0
 13
4052.548042355733
 23
3637.365217619839
 33
0.0
210
0.0
220
0.0
230
1.0
  0
SOLID
  5
846
330
805
100
AcDbEntity
  8
HATCH
  6
CONTINUOUS
 62
     3
100
AcDbTrace
 10
6273.799083202151
 20
3634.811814555257
 30
0.0
 11
4059.469159689283
 21
3633.395906019099
 31
0.0
 12
6266.5688701933
 22
3631.119877296275
 32
0.0
 13
6266.5688701933
 23
3631.119877296275
 33
0.0
210
0.0
220
0.0
230
1.0
  0
SOLID
  5
847
330
805
100
AcDbEntity
  8
HATCH
  6
CONTINUOUS
 62
     3
100
AcDbTrace
 10
4066.826803324388
 20
3629.892547450608
 30
0.0
 11
6266.5688701933
 21
3631.119877296275
 31
0.0
 12
4059.469159689283
 22
3633.395906019099
 32
0.0
 13
4059.469159689283
 23
3633.395906019099
 33
0.0
210
0.0
220
0.0
230
1.0
  0
SOLID
  5
848
330
805
100
AcDbEntity
  8
HATCH
  6
CONTINUOUS
 62
     3
100
AcDbTrace
 10
6266.5688701933
 20
3631.119877296275
 30
0.0
 11
4066.826803324388
 21
3629.892547450608
 31
0.0
 12
6258.934251689454
 22
3627.914834801751
 32
0.0
 13
6258.934251689454
 23
3627.914834801751
 33
0.0
210
0.0
220
0.0
230
1.0
  0
SOLID
  5
849
330
805
100
AcDbEntity
  8
HATCH
  6
CONTINUOUS
 62
     3
100
AcDbTrace
 10
4074.564977150317
 20
3626.881804588459
 30
0.0
 11
6258.934251689454
 21
3627.914834801751
 31
0.0
 12
4066.826803324388
 22
3629.892547450608
 32
0.0
 13
4066.826803324388
 23
3629.892547450608
 33
0.0
210
0.0
220
0.0
230
1.0
  0
SOLID
  5
84A
330
805
100
AcDbEntity
  8
HATCH
  6
CONTINUOUS
 62
     3
100
AcDbTrace
 10
6258.934251689454
 20
3627.914834801751
 30
0.0
 11
4074.564977150317
 21
3626.881804588459
 31
0.0
 12
6250.953766952693
 22
3625.221262081225
 32
0.0
 13
6250.953766952693
 23
3625.221262081225
 33
0.0
210
0.0
220
0.0
230
1.0
  0
SOLID
  5
84B
330
805
100
AcDbEntity
  8
HATCH
  6
CONTINUOUS
 62
     3
100
AcDbTrace
 10
4082.624788991821
 20
3624.386591003769
 30
0.0
 11
6250.953766952693
 21
3625.221262081225
 31
0.0
 12
4074.564977150317
 22
3626.881804588459
 32
0.0
 13
4074.564977150317
 23
3626.881804588459
 33
0.0
210
0.0
220
0.0
230
1.0
  0
SOLID
  5
84C
330
805
100
AcDbEntity
  8
HATCH
  6
CONTINUOUS
 62
     3
100
AcDbTrace
 10
6250.953766952693
 20
3625.221262081225
 30
0.0
 11
4082.624788991821
 21
3624.386591003769
 31
0.0
 12
6242.6886072118
 22
3623.059812394495
 32
0.0
 13
6242.6886072118
 23
3623.059812394495
 33
0.0
210
0.0
220
0.0
230
1.0
  0
SOLID
  5
84D
330
805
100
AcDbEntity
  8
HATCH
  6
CONTINUOUS
 62
     3
100
AcDbTrace
 10
4090.944898814135
 20
3622.425896778569
 30
0.0
 11
6242.6886072118
 21
3623.059812394495
 31
0.0
 12
4082.624788991821
 22
3624.386591003769
 32
0.0
 13
4082.624788991821
 23
3624.386591003769
 33
0.0
  0
SOLID
  5
84E
330
805
100
AcDbEntity
  8
HATCH
  6
CONTINUOUS
 62
     3
100
AcDbTrace
 10
6242.6886072118
 20
3623.059812394495
 30
0.0
 11
4090.944898814135
 21
3622.425896778569
 31
0.0
 12
6234.202146471904
 22
3621.447058890518
 32
0.0
 13
6234.202146471904
 23
3621.447058890518
 33
0.0
210
0.0
220
0.0
230
1.0
  0
SOLID
  5
84F
330
805
100
AcDbEntity
  8
HATCH
  6
CONTINUOUS
 62
     3
100
AcDbTrace
 10
4099.461985557694
 20
3621.014643979811
 30
0.0
 11
6234.202146471904
 21
3621.447058890518
 31
0.0
 12
4090.944898814135
 22
3622.425896778569
 32
0.0
 13
4090.944898814135
 23
3622.425896778569
 33
0.0
210
0.0
220
0.0
230
1.0
  0
SOLID
  5
850
330
805
100
AcDbEntity
  8
HATCH
  6
CONTINUOUS
 62
     3
100
AcDbTrace
 10
6234.202146471904
 20
3621.447058890518
 30
0.0
 11
4099.461985557694
 21
3621.014643979811
 31
0.0
 12
6225.559455587449
 22
3620.395367530996
 32
0.0
 13
6225.559455587449
 23
3620.395367530996
 33
0.0
210
0.0
220
0.0
230
1.0
  0
SOLID
  5
851
330
805
100
AcDbEntity
  8
HATCH
  6
CONTINUOUS
 62
     3
100
AcDbTrace
 10
4108.111229049622
 20
3620.163573093432
 30
0.0
 11
6225.559455587449
 21
3620.395367530996
 31
0.0
 12
4099.461985557694
 22
3621.014643979811
 32
0.0
 13
4099.461985557694
 23
3621.014643979811
 33
0.0
210
0.0
220
0.0
230
1.0
  0
SOLID
  5
852
330
805
100
AcDbEntity
  8
HATCH
  6
CONTINUOUS
 62
     3
100
AcDbTrace
 10
6225.559455587449
 20
3620.395367530996
 30
0.0
 11
4108.111229049622
 21
3620.163573093432
 31
0.0
 12
6216.826803324387
 22
3619.912802273036
 32
0.0
 13
6216.826803324387
 23
3619.912802273036
 33
0.0
210
0.0
220
0.0
230
1.0
  0
SOLID
  5
853
330
805
100
AcDbEntity
  8
HATCH
  6
CONTINUOUS
 62
     3
100
AcDbTrace
 10
4116.826803324392
 20
3619.879161282769
 30
0.0
 11
6216.826803324387
 21
3619.912802273036
 31
0.0
 12
4108.111229049622
 22
3620.163573093432
 32
0.0
 13
4108.111229049622
 23
3620.163573093432
 33
0.0
  0
SOLID
  5
854
330
805
100
AcDbEntity
  8
HATCH
  6
CONTINUOUS
 62
     3
100
AcDbTrace
 10
6216.826803324387
 20
3619.912802273036
 30
0.0
 11
4116.826803324392
 21
3619.879161282769
 31
0.0
 12
6213.826803324387
 22
3619.879161282769
 32
0.0
 13
6213.826803324387
 23
3619.879161282769
 33
0.0
210
0.0
220
0.0
230
1.0
  0
ENDBLK
  5
856
330
805
100
AcDbEntity
  8
0
100
AcDbBlockEnd
  0
BLOCK
  5
864
330
857
100
AcDbEntity
  8
0
100
AcDbBlockBegin
  2
*U19
 70
     1
 10
0.0
 20
0.0
 30
0.0
  3
*U19
  1

  0
SOLID
  5
858
330
857
100
AcDbEntity
  8
HATCH
  6
CONTINUOUS
 62
   251
100
AcDbTrace
 10
6684.326803324388
 20
4251.306616229697
 30
0.0
 11
6684.326803324387
 21
4318.306616229697
 31
0.0
 12
6313.826803324389
 22
4251.306616229697
 32
0.0
 13
6313.826803324389
 23
4251.306616229697
 33
0.0
210
0.0
220
0.0
230
1.0
  0
SOLID
  5
859
330
857
100
AcDbEntity
  8
HATCH
  6
CONTINUOUS
 62
   251
100
AcDbTrace
 10
6313.826803324388
 20
4318.306616229697
 30
0.0
 11
6313.826803324389
 21
4251.306616229697
 31
0.0
 12
6684.326803324387
 22
4318.306616229697
 32
0.0
 13
6684.326803324387
 23
4318.306616229697
 33
0.0
210
0.0
220
0.0
230
1.0
  0
SOLID
  5
85A
330
857
100
AcDbEntity
  8
HATCH
  6
CONTINUOUS
 62
   251
100
AcDbTrace
 10
6684.32680332439
 20
4251.306616229697
 30
0.0
 11
6696.326803324386
 21
4251.306616229697
 31
0.0
 12
6684.326803324388
 22
4318.306616229697
 32
0.0
 13
6684.326803324388
 23
4318.306616229697
 33
0.0
210
0.0
220
0.0
230
1.0
  0
SOLID
  5
85B
330
857
100
AcDbEntity
  8
HATCH
  6
CONTINUOUS
 62
   251
100
AcDbTrace
 10
6696.326803324385
 20
4318.306616229697
 30
0.0
 11
6684.326803324388
 21
4318.306616229697
 31
0.0
 12
6696.326803324386
 22
4251.306616229697
 32
0.0
 13
6696.326803324386
 23
4251.306616229697
 33
0.0
210
0.0
220
0.0
230
1.0
  0
SOLID
  5
85C
330
857
100
AcDbEntity
  8
HATCH
  6
CONTINUOUS
 62
   251
100
AcDbTrace
 10
6723.826803324384
 20
4117.306616229697
 30
0.0
 11
6723.826803324382
 21
4184.306616229696
 31
0.0
 12
6696.326803324386
 22
4184.306616229696
 32
0.0
 13
6696.326803324386
 23
4184.306616229696
 33
0.0
210
0.0
220
0.0
230
1.0
  0
SOLID
  5
85D
330
857
100
AcDbEntity
  8
HATCH
  6
CONTINUOUS
 62
   251
100
AcDbTrace
 10
6696.326803324386
 20
4184.306616229696
 30
0.0
 11
6696.326803324386
 21
4117.306616229697
 31
0.0
 12
6723.826803324384
 22
4117.306616229697
 32
0.0
 13
6723.826803324384
 23
4117.306616229697
 33
0.0
210
0.0
220
0.0
230
1.0
  0
SOLID
  5
85E
330
857
100
AcDbEntity
  8
HATCH
  6
CONTINUOUS
 62
   251
100
AcDbTrace
 10
6723.826803324389
 20
4251.306616229697
 30
0.0
 11
6723.826803324389
 21
4318.306616229697
 31
0.0
 12
6696.326803324386
 22
4318.306616229697
 32
0.0
 13
6696.326803324386
 23
4318.306616229697
 33
0.0
210
0.0
220
0.0
230
1.0
  0
SOLID
  5
85F
330
857
100
AcDbEntity
  8
HATCH
  6
CONTINUOUS
 62
   251
100
AcDbTrace
 10
6696.326803324386
 20
4318.306616229697
 30
0.0
 11
6696.326803324386
 21
4251.306616229697
 31
0.0
 12
6723.826803324389
 22
4251.306616229697
 32
0.0
 13
6723.826803324389
 23
4251.306616229697
 33
0.0
210
0.0
220
0.0
230
1.0
  0
SOLID
  5
860
330
857
100
AcDbEntity
  8
HATCH
  6
CONTINUOUS
 62
   251
100
AcDbTrace
 10
6684.326803324386
 20
4117.306616229697
 30
0.0
 11
6696.326803324386
 21
4117.306616229696
 31
0.0
 12
6684.326803324386
 22
4184.306616229696
 32
0.0
 13
6684.326803324386
 23
4184.306616229696
 33
0.0
  0
SOLID
  5
861
330
857
100
AcDbEntity
  8
HATCH
  6
CONTINUOUS
 62
   251
100
AcDbTrace
 10
6696.326803324386
 20
4184.306616229696
 30
0.0
 11
6684.326803324386
 21
4184.306616229696
 31
0.0
 12
6696.326803324386
 22
4117.306616229696
 32
0.0
 13
6696.326803324386
 23
4117.306616229696
 33
0.0
  0
SOLID
  5
862
330
857
100
AcDbEntity
  8
HATCH
  6
CONTINUOUS
 62
   251
100
AcDbTrace
 10
6684.326803324386
 20
4184.306616229696
 30
0.0
 11
6313.826803324388
 21
4184.306616229696
 31
0.0
 12
6684.326803324385
 22
4117.306616229697
 32
0.0
 13
6684.326803324385
 23
4117.306616229697
 33
0.0
210
0.0
220
0.0
230
1.0
  0
SOLID
  5
863
330
857
100
AcDbEntity
  8
HATCH
  6
CONTINUOUS
 62
   251
100
AcDbTrace
 10
6313.826803324388
 20
4117.306616229697
 30
0.0
 11
6684.326803324385
 21
4117.306616229697
 31
0.0
 12
6313.826803324388
 22
4184.306616229696
 32
0.0
 13
6313.826803324388
 23
4184.306616229696
 33
0.0
210
0.0
220
0.0
230
1.0
  0
ENDBLK
  5
865
330
857
100
AcDbEntity
  8
0
100
AcDbBlockEnd
  0
BLOCK
  5
873
330
866
100
AcDbEntity
  8
0
100
AcDbBlockBegin
  2
*U20
 70
     1
 10
0.0
 20
0.0
 30
0.0
  3
*U20
  1

  0
SOLID
  5
867
330
866
100
AcDbEntity
  8
HATCH
  6
CONTINUOUS
 62
     5
100
AcDbTrace
 10
6822.649133794723
 20
4200.128946700032
 30
0.0
 11
6540.326803324386
 21
4192.806616229696
 31
0.0
 12
6840.326803324386
 22
4192.806616229696
 32
0.0
 13
6840.326803324386
 23
4192.806616229696
 33
0.0
  0
SOLID
  5
868
330
866
100
AcDbEntity
  8
HATCH
  6
CONTINUOUS
 62
     5
100
AcDbTrace
 10
6558.00447285405
 20
4200.128946700032
 30
0.0
 11
6540.326803324386
 21
4192.806616229696
 31
0.0
 12
6822.649133794723
 22
4200.128946700032
 32
0.0
 13
6822.649133794723
 23
4200.128946700032
 33
0.0
210
0.0
220
0.0
230
1.0
  0
SOLID
  5
869
330
866
100
AcDbEntity
  8
HATCH
  6
CONTINUOUS
 62
     5
100
AcDbTrace
 10
6815.326803324386
 20
4217.806616229696
 30
0.0
 11
6558.00447285405
 21
4200.128946700032
 31
0.0
 12
6822.649133794723
 22
4200.128946700032
 32
0.0
 13
6822.649133794723
 23
4200.128946700032
 33
0.0
210
0.0
220
0.0
230
1.0
  0
SOLID
  5
86A
330
866
100
AcDbEntity
  8
HATCH
  6
CONTINUOUS
 62
     5
100
AcDbTrace
 10
6565.326803324386
 20
4217.806616229696
 30
0.0
 11
6558.00447285405
 21
4200.128946700032
 31
0.0
 12
6815.326803324386
 22
4217.806616229696
 32
0.0
 13
6815.326803324386
 23
4217.806616229696
 33
0.0
210
0.0
220
0.0
230
1.0
  0
SOLID
  5
86B
330
866
100
AcDbEntity
  8
HATCH
  6
CONTINUOUS
 62
     5
100
AcDbTrace
 10
6822.649133794723
 20
4235.48428575936
 30
0.0
 11
6565.326803324386
 21
4217.806616229696
 31
0.0
 12
6815.326803324386
 22
4217.806616229696
 32
0.0
 13
6815.326803324386
 23
4217.806616229696
 33
0.0
210
0.0
220
0.0
230
1.0
  0
SOLID
  5
86C
330
866
100
AcDbEntity
  8
HATCH
  6
CONTINUOUS
 62
     5
100
AcDbTrace
 10
6558.00447285405
 20
4235.48428575936
 30
0.0
 11
6565.326803324386
 21
4217.806616229696
 31
0.0
 12
6822.649133794723
 22
4235.48428575936
 32
0.0
 13
6822.649133794723
 23
4235.48428575936
 33
0.0
210
0.0
220
0.0
230
1.0
  0
SOLID
  5
86D
330
866
100
AcDbEntity
  8
HATCH
  6
CONTINUOUS
 62
     5
100
AcDbTrace
 10
6558.00447285405
 20
4235.48428575936
 30
0.0
 11
6840.326803324386
 21
4242.806616229696
 31
0.0
 12
6540.326803324386
 22
4242.806616229696
 32
0.0
 13
6540.326803324386
 23
4242.806616229696
 33
0.0
  0
SOLID
  5
86E
330
866
100
AcDbEntity
  8
HATCH
  6
CONTINUOUS
 62
     5
100
AcDbTrace
 10
6840.326803324386
 20
4242.806616229696
 30
0.0
 11
6558.00447285405
 21
4235.48428575936
 31
0.0
 12
6822.649133794723
 22
4235.48428575936
 32
0.0
 13
6822.649133794723
 23
4235.48428575936
 33
0.0
  0
SOLID
  5
86F
330
866
100
AcDbEntity
  8
HATCH
  6
CONTINUOUS
 62
     5
100
AcDbTrace
 10
6540.326803324386
 20
4187.806616229696
 30
0.0
 11
6840.326803324386
 21
4192.806616229696
 31
0.0
 12
6540.326803324386
 22
4192.806616229696
 32
0.0
 13
6540.326803324386
 23
4192.806616229696
 33
0.0
210
0.0
220
0.0
230
1.0
  0
SOLID
  5
870
330
866
100
AcDbEntity
  8
HATCH
  6
CONTINUOUS
 62
     5
100
AcDbTrace
 10
6840.326803324386
 20
4192.806616229696
 30
0.0
 11
6540.326803324386
 21
4187.806616229696
 31
0.0
 12
6840.326803324386
 22
4187.806616229695
 32
0.0
 13
6840.326803324386
 23
4187.806616229695
 33
0.0
210
0.0
220
0.0
230
1.0
  0
SOLID
  5
871
330
866
100
AcDbEntity
  8
HATCH
  6
CONTINUOUS
 62
     5
100
AcDbTrace
 10
6840.326803324386
 20
4242.806616229696
 30
0.0
 11
6840.326803324386
 21
4247.806616229696
 31
0.0
 12
6540.326803324386
 22
4247.806616229696
 32
0.0
 13
6540.326803324386
 23
4247.806616229696
 33
0.0
210
0.0
220
0.0
230
1.0
  0
SOLID
  5
872
330
866
100
AcDbEntity
  8
HATCH
  6
CONTINUOUS
 62
     5
100
AcDbTrace
 10
6540.326803324386
 20
4247.806616229696
 30
0.0
 11
6540.326803324386
 21
4242.806616229696
 31
0.0
 12
6840.326803324386
 22
4242.806616229696
 32
0.0
 13
6840.326803324386
 23
4242.806616229696
 33
0.0
210
0.0
220
0.0
230
1.0
  0
ENDBLK
  5
874
330
866
100
AcDbEntity
  8
0
100
AcDbBlockEnd
  0
BLOCK
  5
88D
330
875
100
AcDbEntity
  8
0
100
AcDbBlockBegin
  2
*U21
 70
     1
 10
0.0
 20
0.0
 30
0.0
  3
*U21
  1

  0
SOLID
  5
876
330
875
100
AcDbEntity
  8
HATCH
  6
CONTINUOUS
 62
   254
100
AcDbTrace
 10
6922.33609666194
 20
4104.624192066765
 30
0.0
 11
6765.266896335353
 21
4070.309986735156
 31
0.0
 12
6848.570965567602
 22
4065.635411079881
 32
0.0
 13
6848.570965567602
 23
4065.635411079881
 33
0.0
210
0.0
220
0.0
230
1.0
  0
SOLID
  5
877
330
875
100
AcDbEntity
  8
HATCH
  6
CONTINUOUS
 62
   254
100
AcDbTrace
 10
6696.326803324383
 20
4117.306616229697
 30
0.0
 11
6765.266896335353
 21
4070.309986735156
 31
0.0
 12
6922.33609666194
 22
4104.624192066765
 32
0.0
 13
6922.33609666194
 23
4104.624192066765
 33
0.0
210
0.0
220
0.0
230
1.0
  0
SOLID
  5
878
330
875
100
AcDbEntity
  8
HATCH
  6
CONTINUOUS
 62
   254
100
AcDbTrace
 10
6922.33609666194
 20
4104.624192066765
 30
0.0
 11
6723.826803324382
 21
4117.306616229697
 31
0.0
 12
6696.326803324383
 22
4117.306616229697
 32
0.0
 13
6696.326803324383
 23
4117.306616229697
 33
0.0
210
0.0
220
0.0
230
1.0
  0
SOLID
  5
879
330
875
100
AcDbEntity
  8
HATCH
  6
CONTINUOUS
 62
   254
100
AcDbTrace
 10
6965.396437487823
 20
4176.089055154627
 30
0.0
 11
6723.826803324382
 21
4117.306616229697
 31
0.0
 12
6922.33609666194
 22
4104.624192066765
 32
0.0
 13
6922.33609666194
 23
4104.624192066765
 33
0.0
210
0.0
220
0.0
230
1.0
  0
SOLID
  5
87A
330
875
100
AcDbEntity
  8
HATCH
  6
CONTINUOUS
 62
   254
100
AcDbTrace
 10
6723.826803324384
 20
4184.306616229696
 30
0.0
 11
6723.826803324382
 21
4117.306616229697
 31
0.0
 12
6965.396437487823
 22
4176.089055154627
 32
0.0
 13
6965.396437487823
 23
4176.089055154627
 33
0.0
210
0.0
220
0.0
230
1.0
  0
SOLID
  5
87B
330
875
100
AcDbEntity
  8
HATCH
  6
CONTINUOUS
 62
   254
100
AcDbTrace
 10
6696.326803324385
 20
4187.806616229695
 30
0.0
 11
6696.326803324383
 21
4184.306616229696
 31
0.0
 12
6723.826803324384
 22
4184.306616229696
 32
0.0
 13
6723.826803324384
 23
4184.306616229696
 33
0.0
210
0.0
220
0.0
230
1.0
  0
SOLID
  5
87C
330
875
100
AcDbEntity
  8
HATCH
  6
CONTINUOUS
 62
   254
100
AcDbTrace
 10
6840.326803324386
 20
4187.806616229696
 30
0.0
 11
6696.326803324385
 21
4187.806616229695
 31
0.0
 12
6723.826803324384
 22
4184.306616229696
 32
0.0
 13
6723.826803324384
 23
4184.306616229696
 33
0.0
210
0.0
220
0.0
230
1.0
  0
SOLID
  5
87D
330
875
100
AcDbEntity
  8
HATCH
  6
CONTINUOUS
 62
   254
100
AcDbTrace
 10
6840.326803324386
 20
4187.806616229696
 30
0.0
 11
6723.826803324384
 21
4184.306616229696
 31
0.0
 12
6965.396437487823
 22
4176.089055154627
 32
0.0
 13
6965.396437487823
 23
4176.089055154627
 33
0.0
210
0.0
220
0.0
230
1.0
  0
SOLID
  5
87E
330
875
100
AcDbEntity
  8
HATCH
  6
CONTINUOUS
 62
   254
100
AcDbTrace
 10
6840.326803324386
 20
4192.806616229696
 30
0.0
 11
6840.326803324386
 21
4187.806616229696
 31
0.0
 12
6965.396437487823
 22
4176.089055154627
 32
0.0
 13
6965.396437487823
 23
4176.089055154627
 33
0.0
210
0.0
220
0.0
230
1.0
  0
SOLID
  5
87F
330
875
100
AcDbEntity
  8
HATCH
  6
CONTINUOUS
 62
   254
100
AcDbTrace
 10
6822.649133794723
 20
4200.128946700032
 30
0.0
 11
6840.326803324386
 21
4192.806616229696
 31
0.0
 12
6965.396437487823
 22
4176.089055154627
 32
0.0
 13
6965.396437487823
 23
4176.089055154627
 33
0.0
210
0.0
220
0.0
230
1.0
  0
SOLID
  5
880
330
875
100
AcDbEntity
  8
HATCH
  6
CONTINUOUS
 62
   254
100
AcDbTrace
 10
6815.326803324386
 20
4217.806616229696
 30
0.0
 11
6822.649133794723
 21
4200.128946700032
 31
0.0
 12
6965.396437487823
 22
4176.089055154627
 32
0.0
 13
6965.396437487823
 23
4176.089055154627
 33
0.0
210
0.0
220
0.0
230
1.0
  0
SOLID
  5
881
330
875
100
AcDbEntity
  8
HATCH
  6
CONTINUOUS
 62
   254
100
AcDbTrace
 10
6822.649133794723
 20
4235.48428575936
 30
0.0
 11
6815.326803324386
 21
4217.806616229696
 31
0.0
 12
6965.396437487823
 22
4176.089055154627
 32
0.0
 13
6965.396437487823
 23
4176.089055154627
 33
0.0
210
0.0
220
0.0
230
1.0
  0
SOLID
  5
882
330
875
100
AcDbEntity
  8
HATCH
  6
CONTINUOUS
 62
   254
100
AcDbTrace
 10
6840.326803324386
 20
4242.806616229696
 30
0.0
 11
6822.649133794723
 21
4235.48428575936
 31
0.0
 12
6965.396437487823
 22
4176.089055154627
 32
0.0
 13
6965.396437487823
 23
4176.089055154627
 33
0.0
210
0.0
220
0.0
230
1.0
  0
SOLID
  5
883
330
875
100
AcDbEntity
  8
HATCH
  6
CONTINUOUS
 62
   254
100
AcDbTrace
 10
6840.326803324386
 20
4247.806616229698
 30
0.0
 11
6840.326803324386
 21
4242.806616229696
 31
0.0
 12
6965.396437487823
 22
4176.089055154627
 32
0.0
 13
6965.396437487823
 23
4176.089055154627
 33
0.0
  0
SOLID
  5
884
330
875
100
AcDbEntity
  8
HATCH
  6
CONTINUOUS
 62
   254
100
AcDbTrace
 10
6696.326803324386
 20
4251.306616229697
 30
0.0
 11
6696.326803324385
 21
4247.806616229696
 31
0.0
 12
6840.326803324386
 22
4247.806616229698
 32
0.0
 13
6840.326803324386
 23
4247.806616229698
 33
0.0
210
0.0
220
0.0
230
1.0
  0
SOLID
  5
885
330
875
100
AcDbEntity
  8
HATCH
  6
CONTINUOUS
 62
   254
100
AcDbTrace
 10
6840.326803324386
 20
4247.806616229698
 30
0.0
 11
6723.826803324389
 21
4251.306616229697
 31
0.0
 12
6696.326803324386
 22
4251.306616229697
 32
0.0
 13
6696.326803324386
 23
4251.306616229697
 33
0.0
  0
SOLID
  5
886
330
875
100
AcDbEntity
  8
HATCH
  6
CONTINUOUS
 62
   254
100
AcDbTrace
 10
6965.396437487824
 20
4259.524177304762
 30
0.0
 11
6723.826803324389
 21
4251.306616229697
 31
0.0
 12
6840.326803324386
 22
4247.806616229698
 32
0.0
 13
6840.326803324386
 23
4247.806616229698
 33
0.0
210
0.0
220
0.0
230
1.0
  0
SOLID
  5
887
330
875
100
AcDbEntity
  8
HATCH
  6
CONTINUOUS
 62
   254
100
AcDbTrace
 10
6965.396437487824
 20
4259.524177304762
 30
0.0
 11
6840.326803324386
 21
4247.806616229698
 31
0.0
 12
6965.396437487823
 22
4176.089055154627
 32
0.0
 13
6965.396437487823
 23
4176.089055154627
 33
0.0
210
0.0
220
0.0
230
1.0
  0
SOLID
  5
888
330
875
100
AcDbEntity
  8
HATCH
  6
CONTINUOUS
 62
   254
100
AcDbTrace
 10
6723.826803324389
 20
4318.306616229697
 30
0.0
 11
6723.826803324389
 21
4251.306616229697
 31
0.0
 12
6965.396437487824
 22
4259.524177304762
 32
0.0
 13
6965.396437487824
 23
4259.524177304762
 33
0.0
210
0.0
220
0.0
230
1.0
  0
SOLID
  5
889
330
875
100
AcDbEntity
  8
HATCH
  6
CONTINUOUS
 62
   254
100
AcDbTrace
 10
6922.336096661941
 20
4330.989040392625
 30
0.0
 11
6696.326803324386
 21
4318.306616229697
 31
0.0
 12
6723.826803324389
 22
4318.306616229697
 32
0.0
 13
6723.826803324389
 23
4318.306616229697
 33
0.0
210
0.0
220
0.0
230
1.0
  0
SOLID
  5
88A
330
875
100
AcDbEntity
  8
HATCH
  6
CONTINUOUS
 62
   254
100
AcDbTrace
 10
6922.336096661941
 20
4330.989040392625
 30
0.0
 11
6723.826803324389
 21
4318.306616229697
 31
0.0
 12
6965.396437487824
 22
4259.524177304762
 32
0.0
 13
6965.396437487824
 23
4259.524177304762
 33
0.0
210
0.0
220
0.0
230
1.0
  0
SOLID
  5
88B
330
875
100
AcDbEntity
  8
HATCH
  6
CONTINUOUS
 62
   254
100
AcDbTrace
 10
6765.266896335354
 20
4365.303245724237
 30
0.0
 11
6696.326803324386
 21
4318.306616229697
 31
0.0
 12
6922.336096661941
 22
4330.989040392625
 32
0.0
 13
6922.336096661941
 23
4330.989040392625
 33
0.0
210
0.0
220
0.0
230
1.0
  0
SOLID
  5
88C
330
875
100
AcDbEntity
  8
HATCH
  6
CONTINUOUS
 62
   254
100
AcDbTrace
 10
6848.570965567603
 20
4369.97782137951
 30
0.0
 11
6765.266896335354
 21
4365.303245724237
 31
0.0
 12
6922.336096661941
 22
4330.989040392625
 32
0.0
 13
6922.336096661941
 23
4330.989040392625
 33
0.0
210
0.0
220
0.0
230
1.0
  0
ENDBLK
  5
88E
330
875
100
AcDbEntity
  8
0
100
AcDbBlockEnd
  0
BLOCK
  5
8AA
330
88F
100
AcDbEntity
  8
0
100
AcDbBlockBegin
  2
*U22
 70
     1
 10
0.0
 20
0.0
 30
0.0
  3
*U22
  1

  0
SOLID
  5
890
330
88F
100
AcDbEntity
  8
HATCH
  6
CONTINUOUS
 62
     1
100
AcDbTrace
 10
6312.684916579425
 20
3683.357414797547
 30
0.0
 11
6311.263678369479
 21
3677.806616229696
 31
0.0
 12
6351.106023937965
 22
3677.806616229696
 32
0.0
 13
6351.106023937965
 23
3677.806616229696
 33
0.0
210
0.0
220
0.0
230
1.0
  0
SOLID
  5
891
330
88F
100
AcDbEntity
  8
HATCH
  6
CONTINUOUS
 62
     1
100
AcDbTrace
 10
6313.540923000349
 20
3688.972608928144
 30
0.0
 11
6312.684916579425
 21
3683.357414797547
 31
0.0
 12
6351.106023937965
 22
3677.806616229696
 32
0.0
 13
6351.106023937965
 23
3677.806616229696
 33
0.0
210
0.0
220
0.0
230
1.0
  0
SOLID
  5
892
330
88F
100
AcDbEntity
  8
HATCH
  6
CONTINUOUS
 62
     1
100
AcDbTrace
 10
6313.826803324388
 20
3694.620093151135
 30
0.0
 11
6313.540923000349
 21
3688.972608928144
 31
0.0
 12
6351.106023937965
 22
3677.806616229696
 32
0.0
 13
6351.106023937965
 23
3677.806616229696
 33
0.0
210
0.0
220
0.0
230
1.0
  0
SOLID
  5
893
330
88F
100
AcDbEntity
  8
HATCH
  6
CONTINUOUS
 62
     1
100
AcDbTrace
 10
7103.826803324388
 20
3730.527395616118
 30
0.0
 11
6976.547582710806
 21
3677.806616229696
 31
0.0
 12
7051.106023937967
 22
3677.806616229696
 32
0.0
 13
7051.106023937967
 23
3677.806616229696
 33
0.0
210
0.0
220
0.0
230
1.0
  0
SOLID
  5
894
330
88F
100
AcDbEntity
  8
HATCH
  6
CONTINUOUS
 62
     1
100
AcDbTrace
 10
6403.826803324389
 20
3730.527395616118
 30
0.0
 11
6313.826803324388
 21
3694.620093151135
 31
0.0
 12
6351.106023937965
 22
3677.806616229696
 32
0.0
 13
6351.106023937965
 23
3677.806616229696
 33
0.0
210
0.0
220
0.0
230
1.0
  0
SOLID
  5
895
330
88F
100
AcDbEntity
  8
HATCH
  6
CONTINUOUS
 62
     1
100
AcDbTrace
 10
6923.826803324388
 20
3730.527395616118
 30
0.0
 11
6976.547582710806
 21
3677.806616229696
 31
0.0
 12
7103.826803324388
 22
3730.527395616118
 32
0.0
 13
7103.826803324388
 23
3730.527395616118
 33
0.0
210
0.0
220
0.0
230
1.0
  0
SOLID
  5
896
330
88F
100
AcDbEntity
  8
HATCH
  6
CONTINUOUS
 62
     1
100
AcDbTrace
 10
6403.826803324389
 20
3805.085836843274
 30
0.0
 11
6313.826803324388
 21
3694.620093151135
 31
0.0
 12
6403.826803324389
 22
3730.527395616118
 32
0.0
 13
6403.826803324389
 23
3730.527395616118
 33
0.0
210
0.0
220
0.0
230
1.0
  0
SOLID
  5
897
330
88F
100
AcDbEntity
  8
HATCH
  6
CONTINUOUS
 62
     1
100
AcDbTrace
 10
6923.826803324388
 20
3805.085836843275
 30
0.0
 11
6923.826803324388
 21
3730.527395616118
 31
0.0
 12
7103.826803324388
 22
3730.527395616118
 32
0.0
 13
7103.826803324388
 23
3730.527395616118
 33
0.0
210
0.0
220
0.0
230
1.0
  0
SOLID
  5
898
330
88F
100
AcDbEntity
  8
HATCH
  6
CONTINUOUS
 62
     1
100
AcDbTrace
 10
7103.826803324388
 20
3805.085836843275
 30
0.0
 11
6923.826803324388
 21
3805.085836843275
 31
0.0
 12
7103.826803324388
 22
3730.527395616118
 32
0.0
 13
7103.826803324388
 23
3730.527395616118
 33
0.0
  0
SOLID
  5
899
330
88F
100
AcDbEntity
  8
HATCH
  6
CONTINUOUS
 62
     1
100
AcDbTrace
 10
7103.826803324388
 20
3805.085836843275
 30
0.0
 11
7051.106023937968
 21
3857.806616229695
 31
0.0
 12
6976.547582710809
 22
3857.806616229695
 32
0.0
 13
6976.547582710809
 23
3857.806616229695
 33
0.0
210
0.0
220
0.0
230
1.0
  0
SOLID
  5
89A
330
88F
100
AcDbEntity
  8
HATCH
  6
CONTINUOUS
 62
     1
100
AcDbTrace
 10
6976.547582710809
 20
3857.806616229695
 30
0.0
 11
6923.826803324388
 21
3805.085836843275
 31
0.0
 12
7103.826803324388
 22
3805.085836843275
 32
0.0
 13
7103.826803324388
 23
3805.085836843275
 33
0.0
210
0.0
220
0.0
230
1.0
  0
SOLID
  5
89B
330
88F
100
AcDbEntity
  8
HATCH
  6
CONTINUOUS
 62
     1
100
AcDbTrace
 10
6313.826803324388
 20
3857.806616229696
 30
0.0
 11
6313.826803324388
 21
3694.620093151135
 31
0.0
 12
6403.826803324389
 22
3805.085836843274
 32
0.0
 13
6403.826803324389
 23
3805.085836843274
 33
0.0
210
0.0
220
0.0
230
1.0
  0
SOLID
  5
89C
330
88F
100
AcDbEntity
  8
HATCH
  6
CONTINUOUS
 62
     1
100
AcDbTrace
 10
6351.106023937965
 20
3857.806616229697
 30
0.0
 11
6313.826803324388
 21
3857.806616229696
 31
0.0
 12
6403.826803324389
 22
3805.085836843274
 32
0.0
 13
6403.826803324389
 23
3805.085836843274
 33
0.0
210
0.0
220
0.0
230
1.0
  0
SOLID
  5
89D
330
88F
100
AcDbEntity
  8
HATCH
  6
CONTINUOUS
 62
     1
100
AcDbTrace
 10
7103.826803324388
 20
4630.527395616118
 30
0.0
 11
6976.547582710806
 21
4577.806616229697
 31
0.0
 12
7051.106023937967
 22
4577.806616229696
 32
0.0
 13
7051.106023937967
 23
4577.806616229696
 33
0.0
  0
SOLID
  5
89E
330
88F
100
AcDbEntity
  8
HATCH
  6
CONTINUOUS
 62
     1
100
AcDbTrace
 10
6923.826803324388
 20
4630.527395616118
 30
0.0
 11
6976.547582710806
 21
4577.806616229697
 31
0.0
 12
7103.826803324388
 22
4630.527395616118
 32
0.0
 13
7103.826803324388
 23
4630.527395616118
 33
0.0
210
0.0
220
0.0
230
1.0
  0
SOLID
  5
89F
330
88F
100
AcDbEntity
  8
HATCH
  6
CONTINUOUS
 62
     1
100
AcDbTrace
 10
6403.826803324388
 20
4630.527395616119
 30
0.0
 11
6313.826803324388
 21
4577.806616229697
 31
0.0
 12
6351.106023937965
 22
4577.806616229697
 32
0.0
 13
6351.106023937965
 23
4577.806616229697
 33
0.0
210
0.0
220
0.0
230
1.0
  0
SOLID
  5
8A0
330
88F
100
AcDbEntity
  8
HATCH
  6
CONTINUOUS
 62
     1
100
AcDbTrace
 10
6403.826803324388
 20
4705.085836843275
 30
0.0
 11
6313.826803324388
 21
4577.806616229697
 31
0.0
 12
6403.826803324388
 22
4630.527395616119
 32
0.0
 13
6403.826803324388
 23
4630.527395616119
 33
0.0
210
0.0
220
0.0
230
1.0
  0
SOLID
  5
8A1
330
88F
100
AcDbEntity
  8
HATCH
  6
CONTINUOUS
 62
     1
100
AcDbTrace
 10
6923.826803324388
 20
4705.085836843275
 30
0.0
 11
6923.826803324388
 21
4630.527395616118
 31
0.0
 12
7103.826803324388
 22
4630.527395616118
 32
0.0
 13
7103.826803324388
 23
4630.527395616118
 33
0.0
210
0.0
220
0.0
230
1.0
  0
SOLID
  5
8A2
330
88F
100
AcDbEntity
  8
HATCH
  6
CONTINUOUS
 62
     1
100
AcDbTrace
 10
7103.826803324388
 20
4705.085836843276
 30
0.0
 11
6923.826803324388
 21
4705.085836843275
 31
0.0
 12
7103.826803324388
 22
4630.527395616118
 32
0.0
 13
7103.826803324388
 23
4630.527395616118
 33
0.0
210
0.0
220
0.0
230
1.0
  0
SOLID
  5
8A3
330
88F
100
AcDbEntity
  8
HATCH
  6
CONTINUOUS
 62
     1
100
AcDbTrace
 10
6313.826803324388
 20
4740.993139308232
 30
0.0
 11
6313.826803324388
 21
4577.806616229697
 31
0.0
 12
6403.826803324388
 22
4705.085836843275
 32
0.0
 13
6403.826803324388
 23
4705.085836843275
 33
0.0
210
0.0
220
0.0
230
1.0
  0
SOLID
  5
8A4
330
88F
100
AcDbEntity
  8
HATCH
  6
CONTINUOUS
 62
     1
100
AcDbTrace
 10
6313.540923000349
 20
4746.640623531249
 30
0.0
 11
6313.826803324388
 21
4740.993139308232
 31
0.0
 12
6403.826803324388
 22
4705.085836843275
 32
0.0
 13
6403.826803324388
 23
4705.085836843275
 33
0.0
210
0.0
220
0.0
230
1.0
  0
SOLID
  5
8A5
330
88F
100
AcDbEntity
  8
HATCH
  6
CONTINUOUS
 62
     1
100
AcDbTrace
 10
6312.684916579427
 20
4752.255817661846
 30
0.0
 11
6313.540923000349
 21
4746.640623531249
 31
0.0
 12
6403.826803324388
 22
4705.085836843275
 32
0.0
 13
6403.826803324388
 23
4705.085836843275
 33
0.0
210
0.0
220
0.0
230
1.0
  0
SOLID
  5
8A6
330
88F
100
AcDbEntity
  8
HATCH
  6
CONTINUOUS
 62
     1
100
AcDbTrace
 10
7103.826803324388
 20
4705.085836843276
 30
0.0
 11
7051.106023937967
 21
4757.806616229696
 31
0.0
 12
6976.547582710809
 22
4757.806616229696
 32
0.0
 13
6976.547582710809
 23
4757.806616229696
 33
0.0
210
0.0
220
0.0
230
1.0
  0
SOLID
  5
8A7
330
88F
100
AcDbEntity
  8
HATCH
  6
CONTINUOUS
 62
     1
100
AcDbTrace
 10
6976.547582710809
 20
4757.806616229696
 30
0.0
 11
6923.826803324388
 21
4705.085836843275
 31
0.0
 12
7103.826803324388
 22
4705.085836843276
 32
0.0
 13
7103.826803324388
 23
4705.085836843276
 33
0.0
210
0.0
220
0.0
230
1.0
  0
SOLID
  5
8A8
330
88F
100
AcDbEntity
  8
HATCH
  6
CONTINUOUS
 62
     1
100
AcDbTrace
 10
6312.684916579427
 20
4752.255817661846
 30
0.0
 11
6351.106023937965
 21
4757.806616229697
 31
0.0
 12
6311.263678369479
 22
4757.806616229697
 32
0.0
 13
6311.263678369479
 23
4757.806616229697
 33
0.0
210
0.0
220
0.0
230
1.0
  0
SOLID
  5
8A9
330
88F
100
AcDbEntity
  8
HATCH
  6
CONTINUOUS
 62
     1
100
AcDbTrace
 10
6351.106023937965
 20
4757.806616229697
 30
0.0
 11
6312.684916579427
 21
4752.255817661846
 31
0.0
 12
6403.826803324388
 22
4705.085836843275
 32
0.0
 13
6403.826803324388
 23
4705.085836843275
 33
0.0
210
0.0
220
0.0
230
1.0
  0
ENDBLK
  5
8AB
330
88F
100
AcDbEntity
  8
0
100
AcDbBlockEnd
  0
BLOCK
  5
8C2
330
8AC
100
AcDbEntity
  8
0
100
AcDbBlockBegin
  2
*U23
 70
     1
 10
0.0
 20
0.0
 30
0.0
  3
*U23
  1

  0
SOLID
  5
8AD
330
8AC
100
AcDbEntity
  8
HATCH
  6
CONTINUOUS
 62
   251
100
AcDbTrace
 10
6923.826803324388
 20
3730.527395616116
 30
0.0
 11
6391.106023937966
 21
3717.806616229696
 31
0.0
 12
6936.547582710808
 22
3717.806616229696
 32
0.0
 13
6936.547582710808
 23
3717.806616229696
 33
0.0
210
0.0
220
0.0
230
1.0
  0
SOLID
  5
8AE
330
8AC
100
AcDbEntity
  8
HATCH
  6
CONTINUOUS
 62
   251
100
AcDbTrace
 10
6403.826803324389
 20
3730.527395616118
 30
0.0
 11
6391.106023937966
 21
3717.806616229696
 31
0.0
 12
6923.826803324388
 22
3730.527395616116
 32
0.0
 13
6923.826803324388
 23
3730.527395616116
 33
0.0
210
0.0
220
0.0
230
1.0
  0
SOLID
  5
8AF
330
8AC
100
AcDbEntity
  8
HATCH
  6
CONTINUOUS
 62
   251
100
AcDbTrace
 10
6403.826803324388
 20
3805.085836843273
 30
0.0
 11
6403.826803324389
 21
3730.527395616118
 31
0.0
 12
6923.826803324388
 22
3730.527395616116
 32
0.0
 13
6923.826803324388
 23
3730.527395616116
 33
0.0
210
0.0
220
0.0
230
1.0
  0
SOLID
  5
8B0
330
8AC
100
AcDbEntity
  8
HATCH
  6
CONTINUOUS
 62
   251
100
AcDbTrace
 10
6923.826803324388
 20
3805.085836843275
 30
0.0
 11
6403.826803324388
 21
3805.085836843273
 31
0.0
 12
6923.826803324388
 22
3730.527395616116
 32
0.0
 13
6923.826803324388
 23
3730.527395616116
 33
0.0
210
0.0
220
0.0
230
1.0
  0
SOLID
  5
8B1
330
8AC
100
AcDbEntity
  8
HATCH
  6
CONTINUOUS
 62
   251
100
AcDbTrace
 10
6923.826803324388
 20
3805.085836843275
 30
0.0
 11
6936.547582710807
 21
3817.806616229695
 31
0.0
 12
6391.106023937968
 22
3817.806616229695
 32
0.0
 13
6391.106023937968
 23
3817.806616229695
 33
0.0
210
0.0
220
0.0
230
1.0
  0
SOLID
  5
8B2
330
8AC
100
AcDbEntity
  8
HATCH
  6
CONTINUOUS
 62
   251
100
AcDbTrace
 10
6391.106023937968
 20
3817.806616229695
 30
0.0
 11
6403.826803324388
 21
3805.085836843273
 31
0.0
 12
6923.826803324388
 22
3805.085836843275
 32
0.0
 13
6923.826803324388
 23
3805.085836843275
 33
0.0
210
0.0
220
0.0
230
1.0
  0
SOLID
  5
8B3
330
8AC
100
AcDbEntity
  8
HATCH
  6
CONTINUOUS
 62
   251
100
AcDbTrace
 10
6963.826803324387
 20
4170.8066162297
 30
0.0
 11
6963.826803324387
 21
3845.085836843274
 31
0.0
 12
6976.547582710809
 22
3857.806616229695
 32
0.0
 13
6976.547582710809
 23
3857.806616229695
 33
0.0
210
0.0
220
0.0
230
1.0
  0
SOLID
  5
8B4
330
8AC
100
AcDbEntity
  8
HATCH
  6
CONTINUOUS
 62
   251
100
AcDbTrace
 10
6971.087035733046
 20
4217.8066162297
 30
0.0
 11
6963.826803324387
 21
4170.8066162297
 31
0.0
 12
6976.547582710809
 22
3857.806616229695
 32
0.0
 13
6976.547582710809
 23
3857.806616229695
 33
0.0
210
0.0
220
0.0
230
1.0
  0
SOLID
  5
8B5
330
8AC
100
AcDbEntity
  8
HATCH
  6
CONTINUOUS
 62
   251
100
AcDbTrace
 10
6971.087035733046
 20
4217.8066162297
 30
0.0
 11
6976.547582710809
 21
3857.806616229695
 31
0.0
 12
7051.106023937967
 22
3857.806616229695
 32
0.0
 13
7051.106023937967
 23
3857.806616229695
 33
0.0
  0
SOLID
  5
8B6
330
8AC
100
AcDbEntity
  8
HATCH
  6
CONTINUOUS
 62
   251
100
AcDbTrace
 10
6971.087035733046
 20
4217.8066162297
 30
0.0
 11
7051.106023937967
 21
3857.806616229695
 31
0.0
 12
7063.826803324388
 22
3845.085836843273
 32
0.0
 13
7063.826803324388
 23
3845.085836843273
 33
0.0
210
0.0
220
0.0
230
1.0
  0
SOLID
  5
8B7
330
8AC
100
AcDbEntity
  8
HATCH
  6
CONTINUOUS
 62
   251
100
AcDbTrace
 10
6963.826803324386
 20
4264.806616229698
 30
0.0
 11
6971.087035733046
 21
4217.8066162297
 31
0.0
 12
7063.826803324388
 22
3845.085836843273
 32
0.0
 13
7063.826803324388
 23
3845.085836843273
 33
0.0
  0
SOLID
  5
8B8
330
8AC
100
AcDbEntity
  8
HATCH
  6
CONTINUOUS
 62
   251
100
AcDbTrace
 10
6976.547582710806
 20
4577.806616229696
 30
0.0
 11
6963.826803324386
 21
4264.806616229698
 31
0.0
 12
7063.826803324388
 22
3845.085836843273
 32
0.0
 13
7063.826803324388
 23
3845.085836843273
 33
0.0
210
0.0
220
0.0
230
1.0
  0
SOLID
  5
8B9
330
8AC
100
AcDbEntity
  8
HATCH
  6
CONTINUOUS
 62
   251
100
AcDbTrace
 10
7063.826803324388
 20
3845.085836843273
 30
0.0
 11
7051.106023937968
 21
4577.806616229696
 31
0.0
 12
6976.547582710806
 22
4577.806616229696
 32
0.0
 13
6976.547582710806
 23
4577.806616229696
 33
0.0
  0
SOLID
  5
8BA
330
8AC
100
AcDbEntity
  8
HATCH
  6
CONTINUOUS
 62
   251
100
AcDbTrace
 10
6963.826803324387
 20
4590.527395616116
 30
0.0
 11
6963.826803324386
 21
4264.806616229698
 31
0.0
 12
6976.547582710806
 22
4577.806616229696
 32
0.0
 13
6976.547582710806
 23
4577.806616229696
 33
0.0
210
0.0
220
0.0
230
1.0
  0
SOLID
  5
8BB
330
8AC
100
AcDbEntity
  8
HATCH
  6
CONTINUOUS
 62
   251
100
AcDbTrace
 10
7063.826803324388
 20
4590.527395616117
 30
0.0
 11
7051.106023937968
 21
4577.806616229696
 31
0.0
 12
7063.826803324388
 22
3845.085836843273
 32
0.0
 13
7063.826803324388
 23
3845.085836843273
 33
0.0
210
0.0
220
0.0
230
1.0
  0
SOLID
  5
8BC
330
8AC
100
AcDbEntity
  8
HATCH
  6
CONTINUOUS
 62
   251
100
AcDbTrace
 10
6403.826803324388
 20
4630.527395616117
 30
0.0
 11
6391.106023937966
 21
4617.806616229696
 31
0.0
 12
6936.547582710808
 22
4617.806616229696
 32
0.0
 13
6936.547582710808
 23
4617.806616229696
 33
0.0
210
0.0
220
0.0
230
1.0
  0
SOLID
  5
8BD
330
8AC
100
AcDbEntity
  8
HATCH
  6
CONTINUOUS
 62
   251
100
AcDbTrace
 10
6923.826803324388
 20
4630.527395616118
 30
0.0
 11
6403.826803324388
 21
4630.527395616117
 31
0.0
 12
6936.547582710808
 22
4617.806616229696
 32
0.0
 13
6936.547582710808
 23
4617.806616229696
 33
0.0
210
0.0
220
0.0
230
1.0
  0
SOLID
  5
8BE
330
8AC
100
AcDbEntity
  8
HATCH
  6
CONTINUOUS
 62
   251
100
AcDbTrace
 10
6923.826803324388
 20
4705.085836843275
 30
0.0
 11
6403.826803324388
 21
4630.527395616117
 31
0.0
 12
6923.826803324388
 22
4630.527395616118
 32
0.0
 13
6923.826803324388
 23
4630.527395616118
 33
0.0
210
0.0
220
0.0
230
1.0
  0
SOLID
  5
8BF
330
8AC
100
AcDbEntity
  8
HATCH
  6
CONTINUOUS
 62
   251
100
AcDbTrace
 10
6403.826803324388
 20
4705.085836843276
 30
0.0
 11
6403.826803324388
 21
4630.527395616117
 31
0.0
 12
6923.826803324388
 22
4705.085836843275
 32
0.0
 13
6923.826803324388
 23
4705.085836843275
 33
0.0
210
0.0
220
0.0
230
1.0
  0
SOLID
  5
8C0
330
8AC
100
AcDbEntity
  8
HATCH
  6
CONTINUOUS
 62
   251
100
AcDbTrace
 10
6403.826803324388
 20
4705.085836843276
 30
0.0
 11
6936.54758271081
 21
4717.806616229696
 31
0.0
 12
6391.106023937966
 22
4717.806616229696
 32
0.0
 13
6391.106023937966
 23
4717.806616229696
 33
0.0
210
0.0
220
0.0
230
1.0
  0
SOLID
  5
8C1
330
8AC
100
AcDbEntity
  8
HATCH
  6
CONTINUOUS
 62
   251
100
AcDbTrace
 10
6936.54758271081
 20
4717.806616229696
 30
0.0
 11
6403.826803324388
 21
4705.085836843276
 31
0.0
 12
6923.826803324388
 22
4705.085836843275
 32
0.0
 13
6923.826803324388
 23
4705.085836843275
 33
0.0
210
0.0
220
0.0
230
1.0
  0
ENDBLK
  5
8C3
330
8AC
100
AcDbEntity
  8
0
100
AcDbBlockEnd
  0
ENDSEC
  0
SECTION
  2
ENTITIES
  0
INSERT
  5
6E8
330
1F
100
AcDbEntity
  8
HATCH
100
AcDbBlockReference
  2
ACKF
 10
0.0
 20
0.0
 30
0.0
  0
ENDSEC
  0
SECTION
  2
OBJECTS
  0
DICTIONARY
  5
C
330
0
100
AcDbDictionary
  3
ACAD_GROUP
350
D
  3
ACAD_LAYOUT
350
1A
  3
ACAD_MLINESTYLE
350
17
  3
ACAD_PLOTSETTINGS
350
19
1001
ACAD
1000
TREAT_AS_HARD
1070
     0
1000
TREAT_AS_HARD
1070
     0
  0
DICTIONARY
  5
1E2
330
1F
100
AcDbDictionary
  3
ACAD_LAYOUTSELFREF
350
6EA
  3
ACAD_SORTENTS
350
41F
1001
ACAD
1000
TREAT_AS_HARD
1070
     1
1000
TREAT_AS_HARD
1070
     0
  0
DICTIONARY
  5
1E4
330
50
100
AcDbDictionary
  3
ACAD_LAYOUTSELFREF
350
6EB
1001
ACAD
1000
TREAT_AS_HARD
1070
     1
1000
TREAT_AS_HARD
1070
     0
  0
DICTIONARY
  5
D
102
{ACAD_REACTORS
330
C
102
}
330
C
100
AcDbDictionary
1001
ACAD
1000
TREAT_AS_HARD
1070
     0
1000
TREAT_AS_HARD
1070
     0
  0
DICTIONARY
  5
1A
102
{ACAD_REACTORS
330
C
102
}
330
C
100
AcDbDictionary
1001
ACAD
1000
TREAT_AS_HARD
1070
     0
1000
TREAT_AS_HARD
1070
     0
  0
DICTIONARY
  5
17
102
{ACAD_REACTORS
330
C
102
}
330
C
100
AcDbDictionary
  3
STANDARD
350
18
1001
ACAD
1000
TREAT_AS_HARD
1070
     0
1000
TREAT_AS_HARD
1070
     0
  0
DICTIONARY
  5
19
102
{ACAD_REACTORS
330
C
102
}
330
C
100
AcDbDictionary
1001
ACAD
1000
TREAT_AS_HARD
1070
     0
1000
TREAT_AS_HARD
1070
     0
  0
XRECORD
  5
6EA
102
{ACAD_REACTORS
330
1E2
102
}
330
1E2
100
AcDbXrecord
340
1F
  0
SORTENTSTABLE
  5
41F
102
{ACAD_REACTORS
330
1E2
102
}
330
1E2
100
AcDbSortentsTable
330
1F
331
370
  5
388
331
392
  5
3AA
331
511
  5
324
331
3B0
  5
445
331
326
  5
328
331
3A3
  5
3BA
331
381
  5
399
331
35F
  5
377
331
3C1
  5
601
331
337
  5
34E
331
33D
  5
354
331
34E
  5
366
331
2D2
  5
32F
331
390
  5
3A8
331
3AE
  5
3FD
331
324
  5
33C
331
5F5
  5
320
331
35D
  5
375
331
33B
  5
352
331
3A1
  5
3B8
331
37F
  5
397
331
335
  5
34C
331
453
  5
32B
331
3BF
  5
5C9
331
497
  5
321
331
36E
  5
386
331
34C
  5
364
331
3AC
  5
3C3
331
322
  5
33A
331
39F
  5
3B6
331
37D
  5
395
331
35B
  5
373
331
339
  5
350
331
3BD
  5
511
331
333
  5
34A
331
4F3
  5
31B
331
34A
  5
362
331
38E
  5
3A6
331
36C
  5
383
331
3AA
  5
3C1
331
320
  5
338
331
39D
  5
3B4
331
37B
  5
393
331
3BB
  5
505
331
331
  5
348
331
618
  5
31E
331
348
  5
360
331
38C
  5
3A4
331
36A
  5
381
331
3A8
  5
3BF
331
39B
  5
3B2
331
379
  5
391
331
357
  5
370
331
3B9
  5
4E8
331
32F
  5
346
331
38A
  5
3A2
331
368
  5
380
331
346
  5
35E
331
3FD
  5
32D
331
31E
  5
336
331
377
  5
38F
331
355
  5
36E
331
399
  5
3B1
331
518
  5
323
331
4CB
  5
317
331
3B7
  5
4CB
331
32D
  5
344
331
46D
  5
32A
331
388
  5
3A0
331
366
  5
37E
331
344
  5
35C
331
31C
  5
334
331
601
  5
31F
331
5C9
  5
2D2
331
397
  5
3AF
331
375
  5
38D
331
353
  5
36C
331
3B5
  5
497
331
32B
  5
342
331
612
  5
31D
331
342
  5
35A
331
386
  5
39E
331
364
  5
37C
331
31A
  5
332
331
395
  5
3AD
331
373
  5
38B
331
351
  5
36A
331
3B3
  5
479
331
329
  5
340
331
362
  5
37A
331
340
  5
357
331
3A6
  5
3BD
331
384
  5
39D
331
50B
  5
326
331
393
  5
3AB
331
371
  5
389
331
489
  5
622
331
327
  5
33E
331
445
  5
32C
331
3B1
  5
453
331
3A4
  5
3BB
331
382
  5
39B
331
360
  5
378
331
33E
  5
355
331
3C2
  5
612
331
316
  5
330
331
34F
  5
367
331
391
  5
3A9
331
3AF
  5
41E
331
325
  5
33D
331
3A2
  5
3B9
331
380
  5
398
331
35E
  5
376
331
33C
  5
353
331
4A1
  5
327
331
3C0
  5
5F5
331
336
  5
34D
331
36F
  5
387
331
34D
  5
365
331
3AD
  5
3D8
331
323
  5
33B
331
35C
  5
374
331
33A
  5
351
331
3A0
  5
3B7
331
37E
  5
396
331
505
  5
325
331
3BE
  5
518
331
334
  5
34B
331
38F
  5
3A7
331
36D
  5
384
331
34B
  5
363
331
3AB
  5
3C2
331
321
  5
339
331
39E
  5
3B5
331
37C
  5
394
331
35A
  5
372
331
338
  5
34F
331
3BC
  5
50B
331
332
  5
349
331
38D
  5
3A5
331
36B
  5
382
331
349
  5
361
331
3A9
  5
3C0
331
39C
  5
3B3
331
37A
  5
392
331
358
  5
371
331
3BA
  5
4F3
331
330
  5
347
331
38B
  5
3A3
331
347
  5
35F
331
31F
  5
337
331
378
  5
390
331
356
  5
36F
331
3B8
  5
4D9
331
32E
  5
345
331
345
  5
35D
331
389
  5
3A1
331
367
  5
37F
331
41E
  5
32E
331
31D
  5
335
331
398
  5
3B0
331
376
  5
38E
331
354
  5
36D
331
3B6
  5
4A1
331
32C
  5
343
331
387
  5
39F
331
365
  5
37D
331
343
  5
35B
331
3D8
  5
329
331
31B
  5
333
331
4D9
  5
31A
331
622
  5
316
331
352
  5
36B
331
396
  5
3AE
331
3B4
  5
489
331
32A
  5
341
331
374
  5
38C
331
3A7
  5
3BE
331
363
  5
37B
331
341
  5
358
331
394
  5
3AC
331
372
  5
38A
331
350
  5
368
331
3B2
  5
46D
331
328
  5
33F
331
4E8
  5
31C
331
33F
  5
356
331
3A5
  5
3BC
331
383
  5
39C
331
361
  5
379
331
317
  5
331
331
3C3
  5
618
331
479
  5
322
  0
XRECORD
  5
6EB
102
{ACAD_REACTORS
330
1E4
102
}
330
1E4
100
AcDbXrecord
340
50
  0
MLINESTYLE
  5
18
102
{ACAD_REACTORS
330
17
102
}
330
17
100
AcDbMlineStyle
  2
STANDARD
 70
     0
  3

 62
   256
 51
90.0
 52
90.0
 71
     2
 49
0.5
 62
   256
  6
BYLAYER
 49
-0.5
 62
   256
  6
BYLAYER
  0
ENDSEC
  0
EOF
