  0
SECTION
  2
HEADER
  9
$ACADVER
  1
AC1012
  9
$DWGCODEPAGE
  3
ANSI_1252
  9
$INSBASE
 10
0.0
 20
0.0
 30
0.0
  9
$EXTMIN
 10
-457.8760263139411
 20
-3447.891372184065
 30
-333.5237399839402
  9
$EXTMAX
 10
0.0
 20
755.3468019737622
 30
6565.860569996918
  9
$LIMMIN
 10
0.0
 20
0.0
  9
$LIMMAX
 10
420.0
 20
297.0
  9
$ORTHOMODE
 70
     1
  9
$REGENMODE
 70
     1
  9
$FILLMODE
 70
     1
  9
$QTEXTMODE
 70
     0
  9
$MIRRTEXT
 70
     1
  9
$DRAGMODE
 70
     2
  9
$LTSCALE
 40
1.0
  9
$OSMODE
 70
   511
  9
$ATTMODE
 70
     1
  9
$TEXTSIZE
 40
2.5
  9
$TRACEWID
 40
1.0
  9
$TEXTSTYLE
  7
STANDARD
  9
$CLAYER
  8
HATCH
  9
$CELTYPE
  6
BYLAYER
  9
$CECOLOR
 62
   256
  9
$CELTSCALE
 40
1.0
  9
$DELOBJ
 70
     1
  9
$DISPSILH
 70
     0
  9
$DIMSCALE
 40
1.0
  9
$DIMASZ
 40
2.5
  9
$DIMEXO
 40
0.625
  9
$DIMDLI
 40
3.75
  9
$DIMRND
 40
0.0
  9
$DIMDLE
 40
0.0
  9
$DIMEXE
 40
1.25
  9
$DIMTP
 40
0.0
  9
$DIMTM
 40
0.0
  9
$DIMTXT
 40
2.5
  9
$DIMCEN
 40
2.5
  9
$DIMTSZ
 40
0.0
  9
$DIMTOL
 70
     0
  9
$DIMLIM
 70
     0
  9
$DIMTIH
 70
     0
  9
$DIMTOH
 70
     0
  9
$DIMSE1
 70
     0
  9
$DIMSE2
 70
     0
  9
$DIMTAD
 70
     1
  9
$DIMZIN
 70
     8
  9
$DIMBLK
  1

  9
$DIMASO
 70
     1
  9
$DIMSHO
 70
     1
  9
$DIMPOST
  1

  9
$DIMAPOST
  1

  9
$DIMALT
 70
     0
  9
$DIMALTD
 70
     3
  9
$DIMALTF
 40
0.03937007874016
  9
$DIMLFAC
 40
1.0
  9
$DIMTOFL
 70
     1
  9
$DIMTVP
 40
0.0
  9
$DIMTIX
 70
     0
  9
$DIMSOXD
 70
     0
  9
$DIMSAH
 70
     0
  9
$DIMBLK1
  1

  9
$DIMBLK2
  1

  9
$DIMSTYLE
  2
ISO-25
  9
$DIMCLRD
 70
     0
  9
$DIMCLRE
 70
     0
  9
$DIMCLRT
 70
     0
  9
$DIMTFAC
 40
1.0
  9
$DIMGAP
 40
0.625
  9
$DIMJUST
 70
     0
  9
$DIMSD1
 70
     0
  9
$DIMSD2
 70
     0
  9
$DIMTOLJ
 70
     0
  9
$DIMTZIN
 70
     8
  9
$DIMALTZ
 70
     0
  9
$DIMALTTZ
 70
     0
  9
$DIMFIT
 70
     3
  9
$DIMUPT
 70
     0
  9
$DIMUNIT
 70
     2
  9
$DIMDEC
 70
     8
  9
$DIMTDEC
 70
     8
  9
$DIMALTU
 70
     2
  9
$DIMALTTD
 70
     3
  9
$DIMTXSTY
  7
STANDARD
  9
$DIMAUNIT
 70
     0
  9
$LUNITS
 70
     2
  9
$LUPREC
 70
     4
  9
$SKETCHINC
 40
1.0
  9
$FILLETRAD
 40
10.0
  9
$AUNITS
 70
     0
  9
$AUPREC
 70
     0
  9
$MENU
  1
.
  9
$ELEVATION
 40
0.0
  9
$PELEVATION
 40
0.0
  9
$THICKNESS
 40
0.0
  9
$LIMCHECK
 70
     0
  9
$BLIPMODE
 70
     0
  9
$CHAMFERA
 40
10.0
  9
$CHAMFERB
 40
10.0
  9
$CHAMFERC
 40
20.0
  9
$CHAMFERD
 40
0.0
  9
$SKPOLY
 70
     0
  9
$TDCREATE
 40
2452786.380296065
  9
$TDUPDATE
 40
2452796.530495023
  9
$TDINDWG
 40
0.0520329861
  9
$TDUSRTIMER
 40
0.0520329861
  9
$USRTIMER
 70
     1
  9
$ANGBASE
 50
0.0
  9
$ANGDIR
 70
     0
  9
$PDMODE
 70
     0
  9
$PDSIZE
 40
0.0
  9
$PLINEWID
 40
0.0
  9
$COORDS
 70
     2
  9
$SPLFRAME
 70
     0
  9
$SPLINETYPE
 70
     6
  9
$SPLINESEGS
 70
     8
  9
$ATTDIA
 70
     0
  9
$ATTREQ
 70
     1
  9
$HANDLING
 70
-16383
  9
$HANDSEED
  5
944
  9
$SURFTAB1
 70
     6
  9
$SURFTAB2
 70
     6
  9
$SURFTYPE
 70
     6
  9
$SURFU
 70
     6
  9
$SURFV
 70
     6
  9
$UCSNAME
  2

  9
$UCSORG
 10
0.0
 20
0.0
 30
0.0
  9
$UCSXDIR
 10
0.0
 20
-1.0
 30
0.0
  9
$UCSYDIR
 10
0.0
 20
0.0
 30
1.0
  9
$PUCSNAME
  2

  9
$PUCSORG
 10
0.0
 20
0.0
 30
0.0
  9
$PUCSXDIR
 10
1.0
 20
0.0
 30
0.0
  9
$PUCSYDIR
 10
0.0
 20
1.0
 30
0.0
  9
$USERI1
 70
     0
  9
$USERI2
 70
     0
  9
$USERI3
 70
     0
  9
$USERI4
 70
     0
  9
$USERI5
 70
     0
  9
$USERR1
 40
0.0
  9
$USERR2
 40
0.0
  9
$USERR3
 40
0.0
  9
$USERR4
 40
0.0
  9
$USERR5
 40
0.0
  9
$WORLDVIEW
 70
     1
  9
$SHADEDGE
 70
     3
  9
$SHADEDIF
 70
    70
  9
$TILEMODE
 70
     1
  9
$MAXACTVP
 70
    64
  9
$PINSBASE
 10
0.0
 20
0.0
 30
0.0
  9
$PLIMCHECK
 70
     0
  9
$PEXTMIN
 10
0.0
 20
0.0
 30
0.0
  9
$PEXTMAX
 10
0.0
 20
0.0
 30
0.0
  9
$PLIMMIN
 10
0.0
 20
0.0
  9
$PLIMMAX
 10
12.0
 20
9.0
  9
$UNITMODE
 70
     0
  9
$VISRETAIN
 70
     1
  9
$PLINEGEN
 70
     0
  9
$PSLTSCALE
 70
     1
  9
$TREEDEPTH
 70
  3020
  9
$PICKSTYLE
 70
     1
  9
$CMLSTYLE
  2
STANDARD
  9
$CMLJUST
 70
     0
  9
$CMLSCALE
 40
20.0
  9
$SAVEIMAGES
 70
     1
  0
ENDSEC
  0
SECTION
  2
CLASSES
  0
CLASS
  1
ACDBDICTIONARYWDFLT
  2
AcDbDictionaryWithDefault
  3
AutoCAD 2000
 90
    32768
280
     0
281
     0
  0
CLASS
  1
ACDBPLACEHOLDER
  2
AcDbPlaceHolder
  3
AutoCAD 2000
 90
    32768
280
     0
281
     0
  0
CLASS
  1
LAYOUT
  2
AcDbLayout
  3
AutoCAD 2000
 90
    32768
280
     0
281
     0
  0
CLASS
  1
DICTIONARYVAR
  2
AcDbDictionaryVar
  3
AutoCAD 2000
 90
    32768
280
     0
281
     0
  0
CLASS
  1
SORTENTSTABLE
  2
AcDbSortentsTable
  3
AutoCAD 2000
 90
    32768
280
     0
281
     0
  0
CLASS
  1
LONG_TRANSACTION
  2
AcDbLongTransaction
  3
AutoCAD 2000
 90
    32768
280
     0
281
     0
  0
CLASS
  1
LWPOLYLINE
  2
AcDbPolyline
  3
AutoCAD 2000
 90
    32768
280
     0
281
     1
  0
CLASS
  1
HATCH
  2
AcDbHatch
  3
AutoCAD 2000
 90
    32768
280
     0
281
     1
  0
CLASS
  1
XRECORD
  2
AcDbXrecord
  3
AutoCAD 2000
 90
    32768
280
     0
281
     0
  0
CLASS
  1
LONG_TRANSACTION
  2
AcDbLongTransaction
  3
AutoCAD 2000
 90
    32768
280
     0
281
     0
  0
CLASS
  1
LWPOLYLINE
  2
AcDbPolyline
  3
AutoCAD 2000
 90
    32768
280
     0
281
     1
  0
CLASS
  1
HATCH
  2
AcDbHatch
  3
AutoCAD 2000
 90
    32768
280
     0
281
     1
  0
CLASS
  1
XRECORD
  2
AcDbXrecord
  3
AutoCAD 2000
 90
    32768
280
     0
281
     0
  0
CLASS
  1
LONG_TRANSACTION
  2
AcDbLongTransaction
  3
AutoCAD 2000
 90
    32768
280
     0
281
     0
  0
CLASS
  1
LWPOLYLINE
  2
AcDbPolyline
  3
AutoCAD 2000
 90
    32768
280
     0
281
     1
  0
CLASS
  1
HATCH
  2
AcDbHatch
  3
AutoCAD 2000
 90
    32768
280
     0
281
     1
  0
CLASS
  1
XRECORD
  2
AcDbXrecord
  3
AutoCAD 2000
 90
    32768
280
     0
281
     0
  0
ENDSEC
  0
SECTION
  2
TABLES
  0
TABLE
  2
VPORT
  5
8
330
0
100
AcDbSymbolTable
 70
     2
  0
VPORT
  5
90E
330
8
100
AcDbSymbolTableRecord
100
AcDbViewportTableRecord
  2
*ACTIVE
 70
     0
 10
0.0
 20
0.0
 11
1.0
 21
1.0
 12
731.4792127759638
 22
1924.278385438911
 13
0.0
 23
0.0
 14
10.0
 24
10.0
 15
10.0
 25
10.0
 16
-1.0
 26
0.0
 36
0.0
 17
-115.9375623851536
 27
-1519.379386024309
 37
0.0
 40
9347.982513338587
 41
1.81453154875717
 42
50.0
 43
0.0
 44
0.0
 50
0.0
 51
0.0
 71
     0
 72
   100
 73
     1
 74
     3
 75
     0
 76
     0
 77
     0
 78
     0
  0
ENDTAB
  0
TABLE
  2
LTYPE
  5
5
330
0
100
AcDbSymbolTable
 70
     1
  0
LTYPE
  5
14
330
5
100
AcDbSymbolTableRecord
100
AcDbLinetypeTableRecord
  2
BYBLOCK
 70
     0
  3

 72
    65
 73
     0
 40
0.0
  0
LTYPE
  5
15
330
5
100
AcDbSymbolTableRecord
100
AcDbLinetypeTableRecord
  2
BYLAYER
 70
     0
  3

 72
    65
 73
     0
 40
0.0
  0
LTYPE
  5
16
330
5
100
AcDbSymbolTableRecord
100
AcDbLinetypeTableRecord
  2
CONTINUOUS
 70
     0
  3
Solid line
 72
    65
 73
     0
 40
0.0
  0
ENDTAB
  0
TABLE
  2
LAYER
  5
2
330
0
100
AcDbSymbolTable
 70
     5
  0
LAYER
  5
10
330
2
100
AcDbSymbolTableRecord
100
AcDbLayerTableRecord
  2
0
 70
     0
 62
     7
  6
CONTINUOUS
  0
LAYER
  5
25A
330
2
100
AcDbSymbolTableRecord
100
AcDbLayerTableRecord
  2
OBJECT
 70
     0
 62
     7
  6
CONTINUOUS
  0
LAYER
  5
25B
330
2
100
AcDbSymbolTableRecord
100
AcDbLayerTableRecord
  2
SAFETY
 70
     0
 62
     7
  6
CONTINUOUS
  0
LAYER
  5
45F
330
2
100
AcDbSymbolTableRecord
100
AcDbLayerTableRecord
  2
DEFPOINTS
 70
     0
 62
     7
  6
CONTINUOUS
  0
LAYER
  5
46E
330
2
100
AcDbSymbolTableRecord
100
AcDbLayerTableRecord
  2
HATCH
 70
     0
 62
     7
  6
CONTINUOUS
  0
ENDTAB
  0
TABLE
  2
STYLE
  5
3
330
0
100
AcDbSymbolTable
 70
     1
  0
STYLE
  5
11
330
3
100
AcDbSymbolTableRecord
100
AcDbTextStyleTableRecord
  2
STANDARD
 70
     0
 40
0.0
 41
1.0
 50
0.0
 71
     0
 42
2.5
  3
txt
  4

  0
ENDTAB
  0
TABLE
  2
VIEW
  5
6
330
0
100
AcDbSymbolTable
 70
     0
  0
ENDTAB
  0
TABLE
  2
UCS
  5
7
330
0
100
AcDbSymbolTable
 70
     0
  0
ENDTAB
  0
TABLE
  2
APPID
  5
9
330
0
100
AcDbSymbolTable
 70
     3
  0
APPID
  5
12
330
9
100
AcDbSymbolTableRecord
100
AcDbRegAppTableRecord
  2
ACAD
 70
     0
  0
APPID
  5
25C
330
9
100
AcDbSymbolTableRecord
100
AcDbRegAppTableRecord
  2
AVE_FINISH
 70
     0
  0
APPID
  5
7D7
330
9
100
AcDbSymbolTableRecord
100
AcDbRegAppTableRecord
  2
CONTENTBLOCKICON
 70
     0
  0
ENDTAB
  0
TABLE
  2
DIMSTYLE
  5
A
330
0
100
AcDbSymbolTable
 70
     1
  0
DIMSTYLE
105
27
330
A
100
AcDbSymbolTableRecord
100
AcDbDimStyleTableRecord
  2
ISO-25
 70
     0
  3

  4

  5

  6

  7

 40
1.0
 41
2.5
 42
0.625
 43
3.75
 44
1.25
 45
0.0
 46
0.0
 47
0.0
 48
0.0
140
2.5
141
2.5
142
0.0
143
0.03937007874016
144
1.0
145
0.0
146
1.0
147
0.625
 71
     0
 72
     0
 73
     0
 74
     0
 75
     0
 76
     0
 77
     1
 78
     8
170
     0
171
     3
172
     1
173
     0
174
     0
175
     0
176
     0
177
     0
178
     0
270
     2
271
     8
272
     8
273
     2
274
     3
340
11
275
     0
280
     0
281
     0
282
     0
283
     0
284
     8
285
     0
286
     0
287
     3
288
     0
  0
ENDTAB
  0
TABLE
  2
BLOCK_RECORD
  5
1
330
0
100
AcDbSymbolTable
 70
    23
  0
BLOCK_RECORD
  5
1F
102
{ACAD_XDICTIONARY
360
4F8
102
}
330
1
100
AcDbSymbolTableRecord
100
AcDbBlockTableRecord
  2
*MODEL_SPACE
  0
BLOCK_RECORD
  5
50
102
{ACAD_XDICTIONARY
360
7D3
102
}
330
1
100
AcDbSymbolTableRecord
100
AcDbBlockTableRecord
  2
*PAPER_SPACE
  0
BLOCK_RECORD
  5
5D
330
1
100
AcDbSymbolTableRecord
100
AcDbBlockTableRecord
  2
AGKA
1001
ACAD
1000
DesignCenter Data
1002
{
1070
     1
1070
     4
1002
}
1001
CONTENTBLOCKICON
1071
        0
1004
28000000200000002000000001000800000000000004000000000000000000000000000000000000000000004000000080000000FF000000002000004020000080200000FF200000004000004040000080400000FF400000006000004060000080600000FF600000008000004080000080800000FF80000000A0000040A000
1004
0080A00000FFA0000000C0000040C0000080C00000FFC0000000FF000040FF000080FF0000FFFF0000000020004000200080002000FF002000002020004020200080202000FF202000004020004040200080402000FF402000006020004060200080602000FF602000008020004080200080802000FF80200000A0200040A0
1004
200080A02000FFA0200000C0200040C0200080C02000FFC0200000FF200040FF200080FF2000FFFF2000000040004000400080004000FF004000002040004020400080204000FF204000004040004040400080404000FF404000006040004060400080604000FF604000008040004080400080804000FF80400000A0400040
1004
A0400080A04000FFA0400000C0400040C0400080C04000FFC0400000FF400040FF400080FF4000FFFF4000000060004000600080006000FF006000002060004020600080206000FF206000004060004040600080406000FF406000006060004060600080606000FF606000008060004080600080806000FF80600000A06000
1004
40A0600080A06000FFA0600000C0600040C0600080C06000FFC0600000FF600040FF600080FF6000FFFF6000000080004000800080008000FF008000002080004020800080208000FF208000004080004040800080408000FF408000006080004060800080608000FF608000008080004080800080808000FF80800000A080
1004
0040A0800080A08000FFA0800000C0800040C0800080C08000FFC0800000FF800040FF800080FF8000FFFF80000000A0004000A0008000A000FF00A0000020A0004020A0008020A000FF20A0000040A0004040A0008040A000FF40A0000060A0004060A0008060A000FF60A0000080A0004080A0008080A000FF80A00000A0
1004
A00040A0A00080A0A000FFA0A00000C0A00040C0A00080C0A000FFC0A00000FFA00040FFA00080FFA000FFFFA0000000C0004000C0008000C000FF00C0000020C0004020C0008020C000FF20C0000040C0004040C0008040C000FF40C0000060C0004060C0008060C000FF60C0000080C0004080C0008080C000FF80C00000
1004
A0C00040A0C00080A0C000FFA0C00000C0C00040C0C00080C0C000FFC0C00000FFC00040FFC00080FFC000FFFFC0000000FF004000FF008000FF00FF00FF000020FF004020FF008020FF00FF20FF000040FF004040FF008040FF00FF40FF000060FF004060FF008060FF00FF60FF000080FF004080FF008080FF00FF80FF00
1004
00A0FF0040A0FF0080A0FF00FFA0FF0000C0FF0040C0FF0080C0FF00FFC0FF0000FFFF0040FFFF0080FFFF00FFFFFF0000000000000000000000000000000000000000000000000000000000000000000000000000000000000000000000FF00000000000000000000000000000000000000000000000000000000000000FF
1004
00000000000000000000000000000000000000000000000000000000000000FF00000000000000000000000000000000000000000000000000000000000000FF00000000000000000000000000000000000000000000000000000000000000FF00000000000000000000000000000000000000000000000000000000000000
1004
FF00000000000000000000000000000000000000000000000000000000000000FF00000000000000000000000000000000000000000000000000000000000000FF00000000000000000000000000000000000000000000000000000000000000FF000000000000000000000000000000000000000000000000000000000000
1004
00FF00000000000000000000000000000000000000000000000000000000000000FF00000000000000000000000000000000000000000000000000000000000000FF00000000000000000000000000000000000000000000000000000000000000FF0000000000000000000000000000000000000000000000000000000000
1004
0000FF00000300000000000000000000000000000000000000000000000000000000FF00000300000000000000000000000000000000000000000000000000000000FF00000300000000000000000000000000000000000000000000000000000000FF00000300000000000000000000000000000000000000000000000000
1004
000000FF00000000000000000000000000000000000000000000000000000000000000FF00000000000000000000000000000000000000000000000000000000000000FF00000000000000000000000000000000000000000000000000000000000000FF000000000000000000000000000000000000000000000000000000
1004
00000000FF00000000000000000000000000000000000000000000000000000000000000FF00000000000000000000000000000000000000000000000000000000000000FF00000000000000000000000000000000000000000000000000000000000000FF0000000000000000000000000000000000000000000000000000
1004
0000000000FF00000000000000000000000000000000000000000000000000000000000000FF00000000000000000000000000000000000000000000000000000000000000FF00000000000000000000000000000000000000000000000000000000000000FF00000000000000000000000000000000000000000000000000
1004
000000000000FF00000000000000000000000000000000000000000000000000000000000000000000000000000000000000000000000000
  0
BLOCK_RECORD
  5
25D
330
1
100
AcDbSymbolTableRecord
100
AcDbBlockTableRecord
  2
A$C1DD140A6
  0
BLOCK_RECORD
  5
460
330
1
100
AcDbSymbolTableRecord
100
AcDbBlockTableRecord
  2
*D2
  0
BLOCK_RECORD
  5
53B
330
1
100
AcDbSymbolTableRecord
100
AcDbBlockTableRecord
  2
*D3
  0
BLOCK_RECORD
  5
548
330
1
100
AcDbSymbolTableRecord
100
AcDbBlockTableRecord
  2
*D4
  0
BLOCK_RECORD
  5
557
330
1
100
AcDbSymbolTableRecord
100
AcDbBlockTableRecord
  2
*D5
  0
BLOCK_RECORD
  5
564
330
1
100
AcDbSymbolTableRecord
100
AcDbBlockTableRecord
  2
*D6
  0
BLOCK_RECORD
  5
573
330
1
100
AcDbSymbolTableRecord
100
AcDbBlockTableRecord
  2
*D7
  0
BLOCK_RECORD
  5
580
330
1
100
AcDbSymbolTableRecord
100
AcDbBlockTableRecord
  2
*D8
  0
BLOCK_RECORD
  5
58F
330
1
100
AcDbSymbolTableRecord
100
AcDbBlockTableRecord
  2
*D9
  0
BLOCK_RECORD
  5
59C
330
1
100
AcDbSymbolTableRecord
100
AcDbBlockTableRecord
  2
*D10
  0
BLOCK_RECORD
  5
5AB
330
1
100
AcDbSymbolTableRecord
100
AcDbBlockTableRecord
  2
*D11
  0
BLOCK_RECORD
  5
5B8
330
1
100
AcDbSymbolTableRecord
100
AcDbBlockTableRecord
  2
*D12
  0
BLOCK_RECORD
  5
7D8
330
1
100
AcDbSymbolTableRecord
100
AcDbBlockTableRecord
  2
*U13
  0
BLOCK_RECORD
  5
7EA
330
1
100
AcDbSymbolTableRecord
100
AcDbBlockTableRecord
  2
*U14
  0
BLOCK_RECORD
  5
80B
330
1
100
AcDbSymbolTableRecord
100
AcDbBlockTableRecord
  2
*U15
  0
BLOCK_RECORD
  5
815
330
1
100
AcDbSymbolTableRecord
100
AcDbBlockTableRecord
  2
*U16
  0
BLOCK_RECORD
  5
827
330
1
100
AcDbSymbolTableRecord
100
AcDbBlockTableRecord
  2
*U17
  0
BLOCK_RECORD
  5
832
330
1
100
AcDbSymbolTableRecord
100
AcDbBlockTableRecord
  2
*U18
  0
BLOCK_RECORD
  5
83D
330
1
100
AcDbSymbolTableRecord
100
AcDbBlockTableRecord
  2
*U19
  0
BLOCK_RECORD
  5
847
330
1
100
AcDbSymbolTableRecord
100
AcDbBlockTableRecord
  2
*U20
  0
BLOCK_RECORD
  5
868
330
1
100
AcDbSymbolTableRecord
100
AcDbBlockTableRecord
  2
*U21
  0
BLOCK_RECORD
  5
889
330
1
100
AcDbSymbolTableRecord
100
AcDbBlockTableRecord
  2
*U22
  0
ENDTAB
  0
ENDSEC
  0
SECTION
  2
BLOCKS
  0
BLOCK
  5
20
330
1F
100
AcDbEntity
  8
0
100
AcDbBlockBegin
  2
*MODEL_SPACE
 70
     0
 10
0.0
 20
0.0
 30
0.0
  3
*MODEL_SPACE
  1

  0
ENDBLK
  5
21
330
1F
100
AcDbEntity
  8
0
100
AcDbBlockEnd
  0
BLOCK
  5
52
330
50
100
AcDbEntity
 67
     1
  8
0
100
AcDbBlockBegin
  2
*PAPER_SPACE
 70
     0
 10
0.0
 20
0.0
 30
0.0
  3
*PAPER_SPACE
  1

  0
ENDBLK
  5
53
330
50
100
AcDbEntity
 67
     1
  8
0
100
AcDbBlockEnd
  0
BLOCK
  5
258
330
5D
100
AcDbEntity
  8
0
100
AcDbBlockBegin
  2
AGKA
 70
     0
 10
0.0
 20
0.0
 30
0.0
  3
AGKA
  1

  0
INSERT
  5
761
330
5D
100
AcDbEntity
  8
HATCH
  6
CONTINUOUS
 62
     2
100
AcDbBlockReference
  2
*U13
 10
0.0
 20
0.0
 30
0.0
1001
ACAD
1002
{
1000
R14_HATCH_DATA
1000
761
1011
1.0
1021
0.0
1031
0.0
1011
0.0
1021
1.0
1031
0.0
1011
0.0
1021
0.0
1031
1.0
1040
0.0
1010
0.0
1020
0.0
1030
1.0
1000
SOLID
1070
     1
1070
     0
1071
        2
1071
        7
1070
     0
1070
     1
1071
        7
1040
1419.810183523143
1040
2019.849564783969
1040
1419.810183523143
1040
2021.349564783969
1040
1414.810183523144
1040
2021.349564783969
1040
1414.810183523143
1040
1994.849564783967
1040
1414.810183523142
1040
1968.349564783968
1040
1419.810183523142
1040
1968.349564783967
1040
1419.810183523142
1040
1969.849564783967
1071
        0
1071
        7
1070
     1
1070
     1
1071
        8
1040
1490.810183523143
1040
1979.849564783966
1040
0.4142135623729619
1040
1492.810183523142
1040
1981.849564783966
1040
0.0
1040
1492.810183523142
1040
2007.849564783966
1040
0.4142135623732285
1040
1490.810183523142
1040
2009.849564783967
1040
0.0
1040
1429.810183523143
1040
2009.849564783967
1040
-0.4142135623731017
1040
1419.810183523143
1040
2019.849564783967
1040
0.0
1040
1419.810183523142
1040
1969.849564783967
1040
-0.4142135623730688
1040
1429.810183523143
1040
1979.849564783966
1040
0.0
1071
        0
1070
     0
1070
     1
1040
0.4405033975977056
1071
        2
1040
1418.507874215177
1040
1996.697367186703
1040
0.0
1040
1436.13881047389
1040
1993.173350449151
1040
0.0
1002
}
  0
INSERT
  5
762
330
5D
100
AcDbEntity
  8
HATCH
  6
CONTINUOUS
 62
     5
100
AcDbBlockReference
  2
*U14
 10
0.0
 20
0.0
 30
0.0
1001
ACAD
1002
{
1000
R14_HATCH_DATA
1000
762
1011
1.0
1021
0.0
1031
0.0
1011
0.0
1021
1.0
1031
0.0
1011
0.0
1021
0.0
1031
1.0
1040
0.0
1010
0.0
1020
0.0
1030
1.0
1000
SOLID
1070
     1
1070
     0
1071
        1
1071
        7
1070
     1
1070
     1
1071
       18
1040
1204.661443194721
1040
1698.363689913978
1040
0.1702453322659109
1040
1218.575828974447
1040
1586.721438156393
1040
0.3202504710924509
1040
1295.486837337979
1040
1560.280881432833
1040
-0.3097779460924642
1040
1306.246903991201
1040
1556.809562982954
1040
0.232265497342394
1040
1345.810183523182
1040
1537.383193985411
1040
0.2322654973423925
1040
1385.373463055162
1040
1556.809562982954
1040
-0.3097779460924687
1040
1396.133529708385
1040
1560.280881432833
1040
0.3202504710924757
1040
1473.044538071921
1040
1586.7214381564
1040
0.2159955467947143
1040
1478.066778445533
1040
1726.961544486392
1040
-0.0715964761733526
1040
1471.056230424797
1040
1797.847058297454
1040
-0.1071012451607333
1040
1424.831938541506
1040
1883.597496177682
1040
0.0
1040
1408.559680836722
1040
1939.970869411465
1040
0.2599819294224915
1040
1355.810183523177
1040
1969.386952391699
1040
0.0
1040
1345.810183523179
1040
1969.386952391699
1040
0.0
1040
1335.810183523176
1040
1969.386952391698
1040
0.2599819294224652
1040
1283.060686209634
1040
1939.970869411465
1040
0.0
1040
1266.788428504854
1040
1883.597496177684
1040
-0.1071012451607397
1040
1220.564136621563
1040
1797.847058297452
1040
-0.1017902548787391
1071
        0
1070
     0
1070
     1
1040
1.489169258184293
1071
        1
1040
-3620.632127435575
1040
1810.682900119987
1040
0.0
1002
}
  0
INSERT
  5
763
330
5D
100
AcDbEntity
  8
HATCH
  6
CONTINUOUS
 62
    30
100
AcDbBlockReference
  2
*U15
 10
0.0
 20
0.0
 30
0.0
1001
ACAD
1002
{
1000
R14_HATCH_DATA
1000
763
1011
1.0
1021
0.0
1031
0.0
1011
0.0
1021
1.0
1031
0.0
1011
0.0
1021
0.0
1031
1.0
1040
0.0
1010
0.0
1020
0.0
1030
1.0
1000
SOLID
1070
     1
1070
     0
1071
        2
1071
        7
1070
     0
1070
     1
1071
        4
1040
1295.810183523168
1040
2494.84956478397
1040
1276.810183523154
1040
2494.849564783971
1040
1276.810183523142
1040
1954.849564783974
1040
1295.810183523167
1040
1954.849564783974
1071
        0
1071
        7
1070
     0
1070
     1
1071
        7
1040
1414.810183523153
1040
2494.849564783967
1040
1395.810183523167
1040
2494.849564783967
1040
1395.810183523167
1040
1954.849564783968
1040
1414.81018352314
1040
1954.849564783968
1040
1414.810183523143
1040
1994.849564783967
1040
1414.810183523143
1040
2014.84956478397
1040
1414.810183523145
1040
2047.849564783967
1071
        0
1070
     0
1070
     1
1040
2.609684479259365
1071
        2
1040
1288.136154571398
1040
2313.65310831417
1040
0.0
1040
1410.866465353556
1040
2303.214373007941
1040
0.0
1002
}
  0
INSERT
  5
764
330
5D
100
AcDbEntity
  8
HATCH
  6
CONTINUOUS
 62
     2
100
AcDbBlockReference
  2
*U16
 10
0.0
 20
0.0
 30
0.0
1001
ACAD
1002
{
1000
R14_HATCH_DATA
1000
764
1011
1.0
1021
0.0
1031
0.0
1011
0.0
1021
1.0
1031
0.0
1011
0.0
1021
0.0
1031
1.0
1040
0.0
1010
0.0
1020
0.0
1030
1.0
1000
SOLID
1070
     1
1070
     0
1071
        2
1071
        7
1070
     1
1070
     1
1071
        8
1040
1271.810183523143
1040
2019.84956478397
1040
-0.4142135623730951
1040
1261.810183523143
1040
2009.849564783972
1040
0.0
1040
1200.810183523143
1040
2009.849564783972
1040
0.4142135623730951
1040
1198.810183523141
1040
2007.849564783972
1040
0.0
1040
1198.810183523141
1040
1981.849564783972
1040
0.4142135623730951
1040
1200.810183523143
1040
1979.849564783972
1040
0.0
1040
1261.810183523143
1040
1979.849564783972
1040
-0.4142135623730752
1040
1271.810183523141
1040
1969.849564783971
1040
0.0
1071
        0
1071
        7
1070
     0
1070
     1
1071
        7
1040
1276.810183523142
1040
2021.34956478397
1040
1271.810183523143
1040
2021.34956478397
1040
1271.810183523143
1040
2019.84956478397
1040
1271.810183523141
1040
1969.849564783971
1040
1271.810183523141
1040
1968.349564783969
1040
1276.810183523142
1040
1968.349564783969
1040
1276.810183523142
1040
1994.849564783971
1071
        0
1070
     0
1070
     1
1040
0.4788696774464148
1071
        2
1040
1251.722242232819
1040
1999.662914884398
1040
0.0
1040
1274.722062973025
1040
2002.057267704564
1040
0.0
1002
}
  0
INSERT
  5
765
330
5D
100
AcDbEntity
  8
HATCH
  6
CONTINUOUS
 62
   251
100
AcDbBlockReference
  2
*U17
 10
0.0
 20
0.0
 30
0.0
1001
ACAD
1002
{
1000
R14_HATCH_DATA
1000
765
1011
1.0
1021
0.0
1031
0.0
1011
0.0
1021
1.0
1031
0.0
1011
0.0
1021
0.0
1031
1.0
1040
0.0
1010
0.0
1020
0.0
1030
1.0
1000
SOLID
1070
     1
1070
     1
1071
        1
1071
        7
1070
     1
1070
     1
1071
        7
1040
1295.810183523168
1040
1954.758990089586
1040
-0.1771136754581111
1040
1335.810183523176
1040
1969.386952391698
1040
0.0
1040
1345.810183523179
1040
1969.386952391699
1040
0.0
1040
1355.810183523177
1040
1969.386952391699
1040
-0.1771136754580131
1040
1395.810183523168
1040
1954.758990089606
1040
0.0
1040
1395.810183523168
1040
2797.085090086552
1040
-0.20871215252208
1040
1295.810183523168
1040
2797.085090086552
1040
0.0
1071
        4
1005
79E
1005
7A1
1005
7CE
1005
7B7
1070
     0
1070
     1
1040
1.795019613288708
1071
        1
1040
1344.664535377467
1040
2567.456978455571
1040
0.0
1002
}
  0
INSERT
  5
766
330
5D
100
AcDbEntity
  8
HATCH
  6
CONTINUOUS
 62
   251
100
AcDbBlockReference
  2
*U18
 10
0.0
 20
0.0
 30
0.0
1001
ACAD
1002
{
1000
R14_HATCH_DATA
1000
766
1011
1.0
1021
0.0
1031
0.0
1011
0.0
1021
1.0
1031
0.0
1011
0.0
1021
0.0
1031
1.0
1040
0.0
1010
0.0
1020
0.0
1030
1.0
1000
SOLID
1070
     1
1070
     1
1071
        1
1071
        7
1070
     1
1070
     1
1071
        7
1040
1295.810183523169
1040
3436.213874834344
1040
-0.20871215252208
1040
1395.810183523169
1040
3436.213874834344
1040
0.0
1040
1395.810183523169
1040
4278.5399748313
1040
-0.1771136754580709
1040
1355.810183523167
1040
4263.912012529194
1040
0.0
1040
1345.810183523168
1040
4263.912012529194
1040
0.0
1040
1335.810183523161
1040
4263.912012529196
1040
-0.1771136754580322
1040
1295.810183523169
1040
4278.539974831298
1040
0.0
1071
        4
1005
7CF
1005
771
1005
76E
1005
787
1070
     0
1070
     1
1040
1.739790326519798
1071
        1
1040
1341.948332145088
1040
3997.803416277906
1040
0.0
1002
}
  0
INSERT
  5
767
330
5D
100
AcDbEntity
  8
HATCH
  6
CONTINUOUS
 62
    30
100
AcDbBlockReference
  2
*U19
 10
0.0
 20
0.0
 30
0.0
1001
ACAD
1002
{
1000
R14_HATCH_DATA
1000
767
1011
1.0
1021
0.0
1031
0.0
1011
0.0
1021
1.0
1031
0.0
1011
0.0
1021
0.0
1031
1.0
1040
0.0
1010
0.0
1020
0.0
1030
1.0
1000
SOLID
1070
     1
1070
     0
1071
        2
1071
        7
1070
     0
1070
     1
1071
        5
1040
1414.810183523168
1040
4278.44940013693
1040
1395.810183523167
1040
4278.44940013693
1040
1395.810183523167
1040
3738.449400136928
1040
1414.810183523168
1040
3738.449400136928
1040
1414.810183523168
1040
3768.44940013693
1071
        0
1071
        7
1070
     0
1070
     1
1071
        6
1040
1295.810183523168
1040
4278.44940013693
1040
1276.810183523165
1040
4278.44940013693
1040
1276.810183523165
1040
4238.449400136931
1040
1276.810183523165
1040
4185.44940013693
1040
1276.810183523165
1040
3738.449400136928
1040
1295.810183523167
1040
3738.449400136928
1071
        0
1070
     0
1070
     1
1040
1.424996758494097
1071
        2
1040
1405.625522353955
1040
4138.058909825971
1040
0.0
1040
1285.852489337401
1040
4123.808935768404
1040
0.0
1002
}
  0
INSERT
  5
768
330
5D
100
AcDbEntity
  8
HATCH
  6
CONTINUOUS
 62
     2
100
AcDbBlockReference
  2
*U20
 10
0.0
 20
0.0
 30
0.0
1001
ACAD
1002
{
1000
R14_HATCH_DATA
1000
768
1011
1.0
1021
0.0
1031
0.0
1011
0.0
1021
1.0
1031
0.0
1011
0.0
1021
0.0
1031
1.0
1040
0.0
1010
0.0
1020
0.0
1030
1.0
1000
SOLID
1070
     1
1070
     0
1071
        4
1071
        7
1070
     1
1070
     1
1071
        8
1040
1271.810183523166
1040
4263.449400136931
1040
-0.4142135623731217
1040
1261.810183523166
1040
4253.44940013693
1040
0.0
1040
1200.810183523167
1040
4253.44940013693
1040
0.4142135623730952
1040
1198.810183523167
1040
4251.44940013693
1040
0.0
1040
1198.810183523167
1040
4225.449400136932
1040
0.4142135623733615
1040
1200.810183523167
1040
4223.449400136931
1040
0.0
1040
1261.810183523166
1040
4223.449400136931
1040
-0.4142135623730951
1040
1271.810183523166
1040
4213.44940013693
1040
0.0
1071
        0
1071
        7
1070
     0
1070
     1
1071
        7
1040
1276.810183523165
1040
4264.94940013693
1040
1271.810183523166
1040
4264.94940013693
1040
1271.810183523166
1040
4263.449400136931
1040
1271.810183523166
1040
4213.449400136931
1040
1271.810183523166
1040
4211.949400136931
1040
1276.810183523165
1040
4211.949400136931
1040
1276.810183523165
1040
4238.449400136931
1071
        0
1071
        7
1070
     0
1070
     1
1071
        7
1040
1419.810183523168
1040
4263.449400136931
1040
1419.810183523168
1040
4264.949400136931
1040
1414.810183523168
1040
4264.949400136931
1040
1414.810183523168
1040
4218.44940013693
1040
1414.810183523168
1040
4211.949400136931
1040
1419.810183523168
1040
4211.949400136931
1040
1419.810183523168
1040
4213.449400136931
1071
        0
1071
        7
1070
     1
1070
     1
1071
        8
1040
1492.810183523167
1040
4251.449400136931
1040
0.414213562372829
1040
1490.810183523167
1040
4253.449400136928
1040
0.0
1040
1429.810183523168
1040
4253.44940013693
1040
-0.4142135623730887
1040
1419.810183523168
1040
4263.44940013693
1040
0.0
1040
1419.810183523168
1040
4213.449400136931
1040
-0.4142135623730752
1040
1429.810183523168
1040
4223.449400136931
1040
0.0
1040
1490.810183523167
1040
4223.449400136928
1040
0.4142135623729619
1040
1492.810183523167
1040
4225.44940013693
1040
0.0
1071
        0
1070
     0
1070
     1
1040
0.8956018623190063
1071
        4
1040
1251.66586657492
1040
4242.944052625982
1040
0.0
1040
1274.96577701922
1040
4239.361636691581
1040
0.0
1040
1418.349867114462
1040
4242.944052625982
1040
0.0
1040
1432.688271927811
1040
4234.883638149567
1040
0.0
1002
}
  0
INSERT
  5
769
330
5D
100
AcDbEntity
  8
HATCH
  6
CONTINUOUS
 62
     5
100
AcDbBlockReference
  2
*U21
 10
0.0
 20
0.0
 30
0.0
1001
ACAD
1002
{
1000
R14_HATCH_DATA
1000
769
1011
1.0
1021
0.0
1031
0.0
1011
0.0
1021
1.0
1031
0.0
1011
0.0
1021
0.0
1031
1.0
1040
0.0
1010
0.0
1020
0.0
1030
1.0
1000
SOLID
1070
     1
1070
     0
1071
        1
1071
        7
1070
     1
1070
     1
1071
       18
1040
1471.056230424784
1040
4435.451906623444
1040
-0.0715964761733509
1040
1478.06677844552
1040
4506.337420434504
1040
0.2159955467947171
1040
1473.044538071904
1040
4646.577526764498
1040
0.3202504710924674
1040
1396.133529708369
1040
4673.018083488062
1040
-0.3097779460924448
1040
1385.373463055147
1040
4676.489401937938
1040
0.2322654973423956
1040
1345.810183523167
1040
4695.915770935481
1040
0.2322654973423976
1040
1306.246903991186
1040
4676.489401937938
1040
-0.3097779460924523
1040
1295.486837337964
1040
4673.018083488061
1040
0.3202504710924572
1040
1218.575828974431
1040
4646.577526764498
1040
0.1702453322659072
1040
1204.661443194706
1040
4534.935275006915
1040
-0.1017902548787398
1040
1220.56413662155
1040
4435.451906623441
1040
-0.1071012451607361
1040
1266.788428504841
1040
4349.701468743211
1040
0.0
1040
1283.060686209624
1040
4293.328095509433
1040
0.2599819294224615
1040
1335.810183523161
1040
4263.912012529196
1040
0.0
1040
1345.810183523167
1040
4263.912012529194
1040
0.0
1040
1355.810183523167
1040
4263.912012529194
1040
0.2599819294224911
1040
1408.559680836711
1040
4293.328095509433
1040
0.0
1040
1424.831938541493
1040
4349.701468743211
1040
-0.1071012451607365
1071
        0
1070
     0
1070
     1
1040
1.489169258184293
1071
        1
1040
1379.367872564412
1040
4422.616064800908
1040
0.0
1002
}
  0
INSERT
  5
76A
330
5D
100
AcDbEntity
  8
HATCH
  6
CONTINUOUS
 62
     5
100
AcDbBlockReference
  2
*U22
 10
0.0
 20
0.0
 30
0.0
1001
ACAD
1002
{
1000
R14_HATCH_DATA
1000
76A
1011
1.0
1021
0.0
1031
0.0
1011
0.0
1021
1.0
1031
0.0
1011
0.0
1021
0.0
1031
1.0
1040
0.0
1010
0.0
1020
0.0
1030
1.0
1000
SOLID
1070
     1
1070
     0
1071
        1
1071
        1
1071
        4
1070
     2
1040
1103.143516856502
1040
3116.649482460448
1040
442.6666666666664
1040
5.581729410682942
1040
6.984641203676231
1070
     1
1070
     2
1040
1345.810183523168
1040
3321.649482460448
1040
125.0
1040
0.7014558964966443
1040
2.440136757093148
1070
     1
1070
     2
1040
1588.476850189834
1040
3116.649482460446
1040
442.6666666666664
1040
2.440136757093148
1040
3.843048550086436
1070
     1
1070
     2
1040
1345.810183523167
1040
2911.649482460448
1040
125.0
1040
3.843048550086436
1040
5.581729410682942
1070
     1
1071
        0
1070
     0
1070
     1
1071
        1
1040
0.0
1040
0.0
1040
0.0
1002
}
  0
POLYLINE
  5
76B
330
5D
100
AcDbEntity
  8
SAFETY
100
AcDb2dPolyline
 66
     1
 10
0.0
 20
0.0
 30
457.8760263139411
 70
     1
  0
VERTEX
  5
912
330
76B
100
AcDbEntity
  8
SAFETY
100
AcDbVertex
100
AcDb2dVertex
 10
1413.768835207999
 20
56.34564518483877
 30
457.8760263139411
 42
0.5436078228742427
  0
VERTEX
  5
913
330
76B
100
AcDbEntity
  8
SAFETY
100
AcDbVertex
100
AcDb2dVertex
 10
2848.146225538419
 20
2262.881759674825
 30
457.8760263139411
 42
0.1142488094553302
  0
VERTEX
  5
914
330
76B
100
AcDbEntity
  8
SAFETY
100
AcDbVertex
100
AcDb2dVertex
 10
3045.810183523167
 20
3116.649482460448
 30
457.8760263139411
 42
0.1142488094553302
  0
VERTEX
  5
915
330
76B
100
AcDbEntity
  8
SAFETY
100
AcDbVertex
100
AcDb2dVertex
 10
2848.14622553842
 20
3970.417205246068
 30
457.8760263139411
 42
0.5431335478018882
  0
VERTEX
  5
916
330
76B
100
AcDbEntity
  8
SAFETY
100
AcDbVertex
100
AcDb2dVertex
 10
1416.065404936151
 20
6176.955001580545
 30
457.8760263139411
  0
VERTEX
  5
917
330
76B
100
AcDbEntity
  8
SAFETY
100
AcDbVertex
100
AcDb2dVertex
 10
1274.406752602414
 20
6176.851260849018
 30
457.8760263139411
 42
0.542878648767689
  0
VERTEX
  5
918
330
76B
100
AcDbEntity
  8
SAFETY
100
AcDbVertex
100
AcDb2dVertex
 10
-156.4666680465009
 20
3970.538173065246
 30
457.8760263139411
 42
0.1142663666068474
  0
VERTEX
  5
919
330
76B
100
AcDbEntity
  8
SAFETY
100
AcDbVertex
100
AcDb2dVertex
 10
-354.189816476832
 20
3116.649482460449
 30
457.8760263139411
 42
0.1142663666068474
  0
VERTEX
  5
91A
330
76B
100
AcDbEntity
  8
SAFETY
100
AcDbVertex
100
AcDb2dVertex
 10
-156.4666680465009
 20
2262.76079185565
 30
457.8760263139411
 42
0.542878648767689
  0
VERTEX
  5
91B
330
76B
100
AcDbEntity
  8
SAFETY
100
AcDbVertex
100
AcDb2dVertex
 10
1274.406752602411
 20
56.44770407187843
 30
457.8760263139411
  0
VERTEX
  5
91C
330
76B
100
AcDbEntity
  8
SAFETY
100
AcDbVertex
100
AcDb2dVertex
 10
1416.06540493615
 20
56.34396334035137
 30
457.8760263139411
  0
SEQEND
  5
91D
330
76B
100
AcDbEntity
  8
SAFETY
  0
ARC
  5
76C
330
5D
100
AcDbEntity
  8
OBJECT
100
AcDbCircle
 10
1103.143516856502
 20
3116.649482460448
 30
457.8760263139411
 40
442.6666666666664
100
AcDbArc
 50
319.8095376161766
 51
40.19046238382322
  0
ARC
  5
76D
330
5D
100
AcDbEntity
  8
OBJECT
100
AcDbCircle
 10
1588.476850189834
 20
3116.649482460446
 30
457.8760263139411
 40
442.6666666666664
100
AcDbArc
 50
139.8095376161765
 51
220.1904623838232
  0
ARC
  5
76E
330
5D
100
AcDbEntity
  8
OBJECT
100
AcDbCircle
 10
1345.810183523169
 20
3321.649482460448
 30
457.8760263139411
 40
125.0
100
AcDbArc
 50
40.19046238382322
 51
139.8095376161765
  0
CIRCLE
  5
76F
330
5D
100
AcDbEntity
  8
OBJECT
100
AcDbCircle
 10
1345.810183523168
 20
3336.649482460448
 30
457.8760263139411
 40
18.0
  0
CIRCLE
  5
770
330
5D
100
AcDbEntity
  8
OBJECT
100
AcDbCircle
 10
1345.810183523168
 20
3216.649482460447
 30
457.8760263139411
 40
18.0
  0
LINE
  5
771
330
5D
100
AcDbEntity
  8
OBJECT
100
AcDbLine
 10
1295.810183523169
 20
4278.539974831298
 30
457.8760263139411
 11
1295.810183523169
 21
3436.213874834344
 31
457.8760263139411
  0
LINE
  5
772
330
5D
100
AcDbEntity
  8
OBJECT
100
AcDbLine
 10
1276.810183523165
 20
4278.449400136927
 30
457.8760263139411
 11
1276.810183523165
 21
3738.449400136928
 31
457.8760263139411
  0
LINE
  5
773
330
5D
100
AcDbEntity
  8
OBJECT
100
AcDbLine
 10
1200.810183523167
 20
4253.44940013693
 30
457.8760263139411
 11
1261.810183523166
 21
4253.44940013693
 31
457.8760263139411
  0
LINE
  5
774
330
5D
100
AcDbEntity
  8
OBJECT
100
AcDbLine
 10
1200.810183523167
 20
4223.449400136931
 30
457.8760263139411
 11
1261.810183523166
 21
4223.449400136931
 31
457.8760263139411
  0
ARC
  5
775
330
5D
100
AcDbEntity
  8
OBJECT
100
AcDbCircle
 10
1200.810183523167
 20
4251.449400136931
 30
457.8760263139411
 40
2.0
100
AcDbArc
 50
90.0
 51
180.0
  0
LINE
  5
776
330
5D
100
AcDbEntity
  8
OBJECT
100
AcDbLine
 10
1198.810183523167
 20
4251.449400136931
 30
457.8760263139411
 11
1198.810183523167
 21
4225.449400136932
 31
457.8760263139411
  0
ARC
  5
777
330
5D
100
AcDbEntity
  8
OBJECT
100
AcDbCircle
 10
1200.810183523167
 20
4225.449400136932
 30
457.8760263139411
 40
2.0
100
AcDbArc
 50
180.0
 51
270.0
  0
LINE
  5
778
330
5D
100
AcDbEntity
  8
OBJECT
100
AcDbLine
 10
1276.810183523165
 20
4238.449400136931
 30
457.8760263139411
 11
1276.810183523165
 21
4185.44940013693
 31
457.8760263139411
  0
ARC
  5
779
330
5D
100
AcDbEntity
  8
OBJECT
100
AcDbCircle
 10
1274.310183523167
 20
4211.949400136931
 30
457.8760263139411
 40
18.0
100
AcDbArc
 50
140.2909834469399
 51
277.983556145554
  0
ARC
  5
77A
330
5D
100
AcDbEntity
  8
OBJECT
100
AcDbCircle
 10
1261.810183523166
 20
4213.449400136931
 30
457.8760263139411
 40
10.0
100
AcDbArc
 50
0.0
 51
90.0
  0
ARC
  5
77B
330
5D
100
AcDbEntity
  8
OBJECT
100
AcDbCircle
 10
1261.810183523166
 20
4263.449400136931
 30
457.8760263139411
 40
10.0
100
AcDbArc
 50
270.0
 51
0.0
  0
LINE
  5
77C
330
5D
100
AcDbEntity
  8
OBJECT
100
AcDbLine
 10
1271.810183523166
 20
4263.449400136931
 30
457.8760263139411
 11
1271.810183523166
 21
4213.449400136931
 31
457.8760263139411
  0
LINE
  5
77D
330
5D
100
AcDbEntity
  8
OBJECT
100
AcDbLine
 10
1276.810183523165
 20
4278.44940013693
 30
457.8760263139411
 11
1276.810183523165
 21
4238.449400136931
 31
457.8760263139411
  0
LINE
  5
77E
330
5D
100
AcDbEntity
  8
OBJECT
100
AcDbLine
 10
1295.810183523168
 20
4278.449400136927
 30
457.8760263139411
 11
1276.810183523165
 21
4278.449400136927
 31
457.8760263139411
  0
LINE
  5
77F
330
5D
100
AcDbEntity
  8
OBJECT
100
AcDbLine
 10
1271.810183523166
 20
4264.94940013693
 30
457.8760263139411
 11
1276.810183523165
 21
4264.94940013693
 31
457.8760263139411
  0
LINE
  5
780
330
5D
100
AcDbEntity
  8
OBJECT
100
AcDbLine
 10
1271.810183523166
 20
4263.449400136931
 30
457.8760263139411
 11
1271.810183523166
 21
4264.94940013693
 31
457.8760263139411
  0
LINE
  5
781
330
5D
100
AcDbEntity
  8
OBJECT
100
AcDbLine
 10
1295.810183523167
 20
4278.44940013693
 30
457.8760263139411
 11
1276.810183523165
 21
4278.44940013693
 31
457.8760263139411
  0
LINE
  5
782
330
5D
100
AcDbEntity
  8
OBJECT
100
AcDbLine
 10
1271.810183523166
 20
4211.949400136931
 30
457.8760263139411
 11
1271.810183523166
 21
4213.449400136931
 31
457.8760263139411
  0
LINE
  5
783
330
5D
100
AcDbEntity
  8
OBJECT
100
AcDbLine
 10
1276.810183523165
 20
4211.949400136931
 30
457.8760263139411
 11
1271.810183523166
 21
4211.949400136931
 31
457.8760263139411
  0
ARC
  5
784
330
5D
100
AcDbEntity
  8
OBJECT
100
AcDbCircle
 10
1295.810183523168
 20
3993.44940013693
 30
457.8760263139411
 40
25.0
100
AcDbArc
 50
139.4641978886726
 51
220.5358021113274
  0
ARC
  5
785
330
5D
100
AcDbEntity
  8
OBJECT
100
AcDbCircle
 10
1276.810183523165
 20
3768.44940013693
 30
457.8760263139411
 40
18.0
100
AcDbArc
 50
90.0
 51
270.0
  0
LINE
  5
786
330
5D
100
AcDbEntity
  8
OBJECT
100
AcDbLine
 10
1295.810183523168
 20
3738.449400136928
 30
457.8760263139411
 11
1276.810183523165
 21
3738.449400136928
 31
457.8760263139411
  0
LINE
  5
787
330
5D
100
AcDbEntity
  8
OBJECT
100
AcDbLine
 10
1395.810183523169
 20
4278.539974831298
 30
457.8760263139411
 11
1395.810183523169
 21
3436.213874834344
 31
457.8760263139411
  0
LINE
  5
788
330
5D
100
AcDbEntity
  8
OBJECT
100
AcDbLine
 10
1414.810183523168
 20
4278.44940013693
 30
457.8760263139411
 11
1414.810183523168
 21
3738.449400136928
 31
457.8760263139411
  0
LINE
  5
789
330
5D
100
AcDbEntity
  8
OBJECT
100
AcDbLine
 10
1490.810183523167
 20
4253.449400136928
 30
457.8760263139411
 11
1429.810183523168
 21
4253.44940013693
 31
457.8760263139411
  0
LINE
  5
78A
330
5D
100
AcDbEntity
  8
OBJECT
100
AcDbLine
 10
1490.810183523167
 20
4223.449400136928
 30
457.8760263139411
 11
1429.810183523168
 21
4223.449400136931
 31
457.8760263139411
  0
ARC
  5
78B
330
5D
100
AcDbEntity
  8
OBJECT
100
AcDbCircle
 10
1414.810183523168
 20
4218.44940013693
 30
457.8760263139411
 40
18.0
100
AcDbArc
 50
270.0
 51
16.12762021318902
  0
LINE
  5
78C
330
5D
100
AcDbEntity
  8
OBJECT
100
AcDbLine
 10
1414.810183523168
 20
4238.449400136931
 30
457.8760263139411
 11
1414.810183523168
 21
4185.44940013693
 31
457.8760263139411
  0
LINE
  5
78D
330
5D
100
AcDbEntity
  8
OBJECT
100
AcDbLine
 10
1395.810183523168
 20
4278.44940013693
 30
457.8760263139411
 11
1414.810183523168
 21
4278.44940013693
 31
457.8760263139411
  0
LINE
  5
78E
330
5D
100
AcDbEntity
  8
OBJECT
100
AcDbLine
 10
1414.810183523168
 20
4278.44940013693
 30
457.8760263139411
 11
1414.810183523168
 21
4238.449400136931
 31
457.8760263139411
  0
LINE
  5
78F
330
5D
100
AcDbEntity
  8
OBJECT
100
AcDbLine
 10
1419.810183523168
 20
4263.449400136931
 30
457.8760263139411
 11
1419.810183523168
 21
4213.449400136931
 31
457.8760263139411
  0
LINE
  5
790
330
5D
100
AcDbEntity
  8
OBJECT
100
AcDbLine
 10
1414.810183523168
 20
4278.44940013693
 30
457.8760263139411
 11
1414.810183523168
 21
4218.44940013693
 31
457.8760263139411
  0
ARC
  5
791
330
5D
100
AcDbEntity
  8
OBJECT
100
AcDbCircle
 10
1429.810183523168
 20
4263.449400136931
 30
457.8760263139411
 40
10.0
100
AcDbArc
 50
180.0
 51
270.0
  0
LINE
  5
792
330
5D
100
AcDbEntity
  8
OBJECT
100
AcDbLine
 10
1419.810183523168
 20
4263.449400136931
 30
457.8760263139411
 11
1419.810183523168
 21
4264.94940013693
 31
457.8760263139411
  0
LINE
  5
793
330
5D
100
AcDbEntity
  8
OBJECT
100
AcDbLine
 10
1419.810183523168
 20
4264.94940013693
 30
457.8760263139411
 11
1414.810183523168
 21
4264.949400136931
 31
457.8760263139411
  0
LINE
  5
794
330
5D
100
AcDbEntity
  8
OBJECT
100
AcDbLine
 10
1414.810183523168
 20
4211.949400136931
 30
457.8760263139411
 11
1419.810183523168
 21
4211.949400136931
 31
457.8760263139411
  0
LINE
  5
795
330
5D
100
AcDbEntity
  8
OBJECT
100
AcDbLine
 10
1419.810183523168
 20
4211.949400136931
 30
457.8760263139411
 11
1419.810183523168
 21
4213.449400136931
 31
457.8760263139411
  0
ARC
  5
796
330
5D
100
AcDbEntity
  8
OBJECT
100
AcDbCircle
 10
1429.810183523168
 20
4213.449400136931
 30
457.8760263139411
 40
10.0
100
AcDbArc
 50
90.0
 51
180.0
  0
LINE
  5
797
330
5D
100
AcDbEntity
  8
OBJECT
100
AcDbLine
 10
1492.810183523167
 20
4251.449400136931
 30
457.8760263139411
 11
1492.810183523167
 21
4225.449400136931
 31
457.8760263139411
  0
ARC
  5
798
330
5D
100
AcDbEntity
  8
OBJECT
100
AcDbCircle
 10
1490.810183523167
 20
4225.449400136931
 30
457.8760263139411
 40
2.0
100
AcDbArc
 50
270.0
 51
0.0
  0
ARC
  5
799
330
5D
100
AcDbEntity
  8
OBJECT
100
AcDbCircle
 10
1490.810183523167
 20
4251.449400136931
 30
457.8760263139411
 40
2.0
100
AcDbArc
 50
0.0
 51
90.0
  0
ARC
  5
79A
330
5D
100
AcDbEntity
  8
OBJECT
100
AcDbCircle
 10
1395.810183523168
 20
3993.44940013693
 30
457.8760263139411
 40
25.0
100
AcDbArc
 50
319.4641978886726
 51
40.53580211132739
  0
LINE
  5
79B
330
5D
100
AcDbEntity
  8
OBJECT
100
AcDbLine
 10
1414.810183523168
 20
3738.449400136928
 30
457.8760263139411
 11
1395.810183523168
 21
3738.449400136928
 31
457.8760263139411
  0
ARC
  5
79C
330
5D
100
AcDbEntity
  8
OBJECT
100
AcDbCircle
 10
1414.810183523168
 20
3768.44940013693
 30
457.8760263139411
 40
18.0
100
AcDbArc
 50
270.0
 51
90.0
  0
LINE
  5
79D
330
5D
100
AcDbEntity
  8
OBJECT
100
AcDbLine
 10
1414.810183523168
 20
3738.449400136928
 30
457.8760263139411
 11
1414.810183523168
 21
3768.44940013693
 31
457.8760263139411
  0
ARC
  5
79E
330
5D
100
AcDbEntity
  8
OBJECT
100
AcDbCircle
 10
1345.810183523168
 20
2911.649482460448
 30
457.8760263139411
 40
125.0
100
AcDbArc
 50
220.1904623838232
 51
319.8095376161766
  0
CIRCLE
  5
79F
330
5D
100
AcDbEntity
  8
OBJECT
100
AcDbCircle
 10
1345.810183523167
 20
2896.649482460448
 30
457.8760263139411
 40
18.0
  0
CIRCLE
  5
7A0
330
5D
100
AcDbEntity
  8
OBJECT
100
AcDbCircle
 10
1345.810183523167
 20
3016.649482460448
 30
457.8760263139411
 40
18.0
  0
LINE
  5
7A1
330
5D
100
AcDbEntity
  8
OBJECT
100
AcDbLine
 10
1295.810183523168
 20
2797.085090086552
 30
457.8760263139411
 11
1295.810183523168
 21
1954.758990089586
 31
457.8760263139411
  0
LINE
  5
7A2
330
5D
100
AcDbEntity
  8
OBJECT
100
AcDbLine
 10
1276.810183523142
 20
1954.849564783974
 30
457.8760263139411
 11
1276.810183523153
 21
2494.849564783971
 31
457.8760263139411
  0
ARC
  5
7A3
330
5D
100
AcDbEntity
  8
OBJECT
100
AcDbCircle
 10
1276.810183523153
 20
2464.849564783971
 30
457.8760263139411
 40
18.0
100
AcDbArc
 50
90.0
 51
270.0
  0
LINE
  5
7A4
330
5D
100
AcDbEntity
  8
OBJECT
100
AcDbLine
 10
1295.810183523154
 20
2494.849564783969
 30
457.8760263139411
 11
1276.810183523153
 21
2494.849564783971
 31
457.8760263139411
  0
ARC
  5
7A5
330
5D
100
AcDbEntity
  8
OBJECT
100
AcDbCircle
 10
1295.810183523148
 20
2239.849564783971
 30
457.8760263139411
 40
25.0
100
AcDbArc
 50
139.4641978886705
 51
220.5358021113274
  0
LINE
  5
7A6
330
5D
100
AcDbEntity
  8
OBJECT
100
AcDbLine
 10
1200.810183523143
 20
2009.849564783972
 30
457.8760263139411
 11
1261.810183523143
 21
2009.849564783972
 31
457.8760263139411
  0
LINE
  5
7A7
330
5D
100
AcDbEntity
  8
OBJECT
100
AcDbLine
 10
1200.810183523143
 20
1979.849564783972
 30
457.8760263139411
 11
1261.810183523143
 21
1979.849564783972
 31
457.8760263139411
  0
LINE
  5
7A8
330
5D
100
AcDbEntity
  8
OBJECT
100
AcDbLine
 10
1198.810183523141
 20
1981.849564783972
 30
457.8760263139411
 11
1198.810183523141
 21
2007.849564783972
 31
457.8760263139411
  0
ARC
  5
7A9
330
5D
100
AcDbEntity
  8
OBJECT
100
AcDbCircle
 10
1200.810183523143
 20
2007.849564783972
 30
457.8760263139411
 40
2.0
100
AcDbArc
 50
90.0
 51
180.0
  0
ARC
  5
7AA
330
5D
100
AcDbEntity
  8
OBJECT
100
AcDbCircle
 10
1200.810183523143
 20
1981.849564783972
 30
457.8760263139411
 40
2.0
100
AcDbArc
 50
180.0
 51
270.0
  0
LINE
  5
7AB
330
5D
100
AcDbEntity
  8
OBJECT
100
AcDbLine
 10
1276.810183523142
 20
1994.849564783971
 30
457.8760263139411
 11
1276.810183523142
 21
2047.84956478397
 31
457.8760263139411
  0
ARC
  5
7AC
330
5D
100
AcDbEntity
  8
OBJECT
100
AcDbCircle
 10
1261.810183523143
 20
1969.849564783971
 30
457.8760263139411
 40
10.0
100
AcDbArc
 50
0.0
 51
90.0
  0
ARC
  5
7AD
330
5D
100
AcDbEntity
  8
OBJECT
100
AcDbCircle
 10
1261.810183523143
 20
2019.84956478397
 30
457.8760263139411
 40
10.0
100
AcDbArc
 50
270.0
 51
0.0
  0
ARC
  5
7AE
330
5D
100
AcDbEntity
  8
OBJECT
100
AcDbCircle
 10
1274.310183523143
 20
2021.34956478397
 30
457.8760263139411
 40
18.0
100
AcDbArc
 50
82.01644385444595
 51
219.70901655306
  0
LINE
  5
7AF
330
5D
100
AcDbEntity
  8
OBJECT
100
AcDbLine
 10
1276.810183523142
 20
1954.84956478397
 30
457.8760263139411
 11
1276.810183523142
 21
1994.849564783971
 31
457.8760263139411
  0
LINE
  5
7B0
330
5D
100
AcDbEntity
  8
OBJECT
100
AcDbLine
 10
1271.810183523141
 20
1969.849564783971
 30
457.8760263139411
 11
1271.810183523143
 21
2019.84956478397
 31
457.8760263139411
  0
LINE
  5
7B1
330
5D
100
AcDbEntity
  8
OBJECT
100
AcDbLine
 10
1271.810183523143
 20
2021.34956478397
 30
457.8760263139411
 11
1271.810183523143
 21
2019.84956478397
 31
457.8760263139411
  0
LINE
  5
7B2
330
5D
100
AcDbEntity
  8
OBJECT
100
AcDbLine
 10
1276.810183523142
 20
2021.34956478397
 30
457.8760263139411
 11
1271.810183523143
 21
2021.34956478397
 31
457.8760263139411
  0
LINE
  5
7B3
330
5D
100
AcDbEntity
  8
OBJECT
100
AcDbLine
 10
1295.810183523141
 20
1954.84956478397
 30
457.8760263139411
 11
1276.810183523142
 21
1954.84956478397
 31
457.8760263139411
  0
LINE
  5
7B4
330
5D
100
AcDbEntity
  8
OBJECT
100
AcDbLine
 10
1295.810183523141
 20
1954.849564783974
 30
457.8760263139411
 11
1276.810183523142
 21
1954.849564783974
 31
457.8760263139411
  0
LINE
  5
7B5
330
5D
100
AcDbEntity
  8
OBJECT
100
AcDbLine
 10
1271.810183523141
 20
1969.849564783971
 30
457.8760263139411
 11
1271.810183523141
 21
1968.349564783969
 31
457.8760263139411
  0
LINE
  5
7B6
330
5D
100
AcDbEntity
  8
OBJECT
100
AcDbLine
 10
1271.810183523141
 20
1968.349564783969
 30
457.8760263139411
 11
1276.810183523142
 21
1968.349564783969
 31
457.8760263139411
  0
LINE
  5
7B7
330
5D
100
AcDbEntity
  8
OBJECT
100
AcDbLine
 10
1395.810183523168
 20
2797.085090086552
 30
457.8760263139411
 11
1395.810183523168
 21
1954.758990089604
 31
457.8760263139411
  0
LINE
  5
7B8
330
5D
100
AcDbEntity
  8
OBJECT
100
AcDbLine
 10
1414.81018352314
 20
1954.849564783968
 30
457.8760263139411
 11
1414.810183523153
 21
2494.849564783967
 31
457.8760263139411
  0
LINE
  5
7B9
330
5D
100
AcDbEntity
  8
OBJECT
100
AcDbLine
 10
1414.810183523153
 20
2494.849564783967
 30
457.8760263139411
 11
1395.810183523154
 21
2494.849564783967
 31
457.8760263139411
  0
LINE
  5
7BA
330
5D
100
AcDbEntity
  8
OBJECT
100
AcDbLine
 10
1414.810183523153
 20
2494.849564783967
 30
457.8760263139411
 11
1414.810183523153
 21
2464.849564783969
 31
457.8760263139411
  0
ARC
  5
7BB
330
5D
100
AcDbEntity
  8
OBJECT
100
AcDbCircle
 10
1414.810183523153
 20
2464.849564783969
 30
457.8760263139411
 40
18.0
100
AcDbArc
 50
270.0
 51
90.0
  0
ARC
  5
7BC
330
5D
100
AcDbEntity
  8
OBJECT
100
AcDbCircle
 10
1395.810183523146
 20
2239.849564783968
 30
457.8760263139411
 40
25.0
100
AcDbArc
 50
319.4641978886703
 51
40.53580211132739
  0
LINE
  5
7BD
330
5D
100
AcDbEntity
  8
OBJECT
100
AcDbLine
 10
1490.810183523143
 20
1979.849564783966
 30
457.8760263139411
 11
1429.810183523143
 21
1979.849564783966
 31
457.8760263139411
  0
LINE
  5
7BE
330
5D
100
AcDbEntity
  8
OBJECT
100
AcDbLine
 10
1490.810183523143
 20
2009.849564783967
 30
457.8760263139411
 11
1429.810183523143
 21
2009.849564783967
 31
457.8760263139411
  0
LINE
  5
7BF
330
5D
100
AcDbEntity
  8
OBJECT
100
AcDbLine
 10
1414.810183523143
 20
1994.849564783967
 30
457.8760263139411
 11
1414.810183523145
 21
2047.849564783967
 31
457.8760263139411
  0
LINE
  5
7C0
330
5D
100
AcDbEntity
  8
OBJECT
100
AcDbLine
 10
1395.810183523142
 20
1954.849564783968
 30
457.8760263139411
 11
1414.81018352314
 21
1954.849564783968
 31
457.8760263139411
  0
LINE
  5
7C1
330
5D
100
AcDbEntity
  8
OBJECT
100
AcDbLine
 10
1414.81018352314
 20
1954.849564783968
 30
457.8760263139411
 11
1414.810183523143
 21
2014.84956478397
 31
457.8760263139411
  0
LINE
  5
7C2
330
5D
100
AcDbEntity
  8
OBJECT
100
AcDbLine
 10
1419.810183523142
 20
1969.849564783967
 30
457.8760263139411
 11
1419.810183523143
 21
2019.849564783969
 31
457.8760263139411
  0
LINE
  5
7C3
330
5D
100
AcDbEntity
  8
OBJECT
100
AcDbLine
 10
1414.81018352314
 20
1954.849564783968
 30
457.8760263139411
 11
1414.810183523143
 21
1994.849564783967
 31
457.8760263139411
  0
LINE
  5
7C4
330
5D
100
AcDbEntity
  8
OBJECT
100
AcDbLine
 10
1419.810183523143
 20
2021.349564783969
 30
457.8760263139411
 11
1419.810183523143
 21
2019.849564783969
 31
457.8760263139411
  0
LINE
  5
7C5
330
5D
100
AcDbEntity
  8
OBJECT
100
AcDbLine
 10
1414.810183523143
 20
2021.349564783969
 30
457.8760263139411
 11
1419.810183523143
 21
2021.349564783969
 31
457.8760263139411
  0
ARC
  5
7C6
330
5D
100
AcDbEntity
  8
OBJECT
100
AcDbCircle
 10
1414.810183523143
 20
2014.84956478397
 30
457.8760263139411
 40
18.0
100
AcDbArc
 50
343.8723797868109
 51
90.0
  0
ARC
  5
7C7
330
5D
100
AcDbEntity
  8
OBJECT
100
AcDbCircle
 10
1429.810183523143
 20
2019.849564783969
 30
457.8760263139411
 40
10.0
100
AcDbArc
 50
180.0
 51
270.0
  0
LINE
  5
7C8
330
5D
100
AcDbEntity
  8
OBJECT
100
AcDbLine
 10
1419.810183523142
 20
1968.349564783968
 30
457.8760263139411
 11
1414.81018352314
 21
1968.349564783968
 31
457.8760263139411
  0
LINE
  5
7C9
330
5D
100
AcDbEntity
  8
OBJECT
100
AcDbLine
 10
1419.810183523142
 20
1969.849564783967
 30
457.8760263139411
 11
1419.810183523142
 21
1968.349564783968
 31
457.8760263139411
  0
ARC
  5
7CA
330
5D
100
AcDbEntity
  8
OBJECT
100
AcDbCircle
 10
1429.810183523142
 20
1969.849564783967
 30
457.8760263139411
 40
10.0
100
AcDbArc
 50
90.0
 51
180.0
  0
LINE
  5
7CB
330
5D
100
AcDbEntity
  8
OBJECT
100
AcDbLine
 10
1492.810183523142
 20
1981.849564783967
 30
457.8760263139411
 11
1492.810183523142
 21
2007.849564783966
 31
457.8760263139411
  0
ARC
  5
7CC
330
5D
100
AcDbEntity
  8
OBJECT
100
AcDbCircle
 10
1490.810183523143
 20
2007.849564783966
 30
457.8760263139411
 40
2.0
100
AcDbArc
 50
0.0
 51
90.0
  0
ARC
  5
7CD
330
5D
100
AcDbEntity
  8
OBJECT
100
AcDbCircle
 10
1490.810183523143
 20
1981.849564783967
 30
457.8760263139411
 40
2.0
100
AcDbArc
 50
270.0
 51
0.0
  0
POLYLINE
  5
7CE
330
5D
100
AcDbEntity
  8
OBJECT
100
AcDb2dPolyline
 66
     1
 10
0.0
 20
0.0
 30
457.8760263139407
 70
     1
  0
VERTEX
  5
91E
330
7CE
100
AcDbEntity
  8
OBJECT
100
AcDbVertex
100
AcDb2dVertex
 10
1335.810183523179
 20
1969.386952391698
 30
457.8760263139407
 42
0.2599819294224869
  0
VERTEX
  5
91F
330
7CE
100
AcDbEntity
  8
OBJECT
100
AcDbVertex
100
AcDb2dVertex
 10
1283.060686209634
 20
1939.97086941146
 30
457.8760263139407
  0
VERTEX
  5
920
330
7CE
100
AcDbEntity
  8
OBJECT
100
AcDbVertex
100
AcDb2dVertex
 10
1266.788428504854
 20
1883.597496177683
 30
457.8760263139407
 42
-0.1071012451607374
  0
VERTEX
  5
921
330
7CE
100
AcDbEntity
  8
OBJECT
100
AcDbVertex
100
AcDb2dVertex
 10
1220.564136621564
 20
1797.847058297452
 30
457.8760263139407
 42
-0.1017902548787388
  0
VERTEX
  5
922
330
7CE
100
AcDbEntity
  8
OBJECT
100
AcDbVertex
100
AcDb2dVertex
 10
1204.661443194721
 20
1698.36368991398
 30
457.8760263139407
 42
0.1702453322659084
  0
VERTEX
  5
923
330
7CE
100
AcDbEntity
  8
OBJECT
100
AcDbVertex
100
AcDb2dVertex
 10
1218.575828974446
 20
1586.721438156394
 30
457.8760263139407
 42
0.3202504710924627
  0
VERTEX
  5
924
330
7CE
100
AcDbEntity
  8
OBJECT
100
AcDbVertex
100
AcDb2dVertex
 10
1295.486837337979
 20
1560.280881432833
 30
457.8760263139407
 42
-0.3097779460924688
  0
VERTEX
  5
925
330
7CE
100
AcDbEntity
  8
OBJECT
100
AcDbVertex
100
AcDb2dVertex
 10
1306.246903991201
 20
1556.809562982954
 30
457.8760263139407
 42
0.2322654973423929
  0
VERTEX
  5
926
330
7CE
100
AcDbEntity
  8
OBJECT
100
AcDbVertex
100
AcDb2dVertex
 10
1345.810183523182
 20
1537.383193985411
 30
457.8760263139407
 42
0.2322654973423932
  0
VERTEX
  5
927
330
7CE
100
AcDbEntity
  8
OBJECT
100
AcDbVertex
100
AcDb2dVertex
 10
1385.373463055162
 20
1556.809562982955
 30
457.8760263139407
 42
-0.3097779460924686
  0
VERTEX
  5
928
330
7CE
100
AcDbEntity
  8
OBJECT
100
AcDbVertex
100
AcDb2dVertex
 10
1396.133529708385
 20
1560.280881432833
 30
457.8760263139407
 42
0.3202504710924629
  0
VERTEX
  5
929
330
7CE
100
AcDbEntity
  8
OBJECT
100
AcDbVertex
100
AcDb2dVertex
 10
1473.044538071919
 20
1586.721438156398
 30
457.8760263139407
 42
0.2159955467947232
  0
VERTEX
  5
92A
330
7CE
100
AcDbEntity
  8
OBJECT
100
AcDbVertex
100
AcDb2dVertex
 10
1478.066778445532
 20
1726.961544486394
 30
457.8760263139407
 42
-0.071596476173349
  0
VERTEX
  5
92B
330
7CE
100
AcDbEntity
  8
OBJECT
100
AcDbVertex
100
AcDb2dVertex
 10
1471.056230424798
 20
1797.847058297453
 30
457.8760263139407
 42
-0.1071012451607377
  0
VERTEX
  5
92C
330
7CE
100
AcDbEntity
  8
OBJECT
100
AcDbVertex
100
AcDb2dVertex
 10
1424.831938541505
 20
1883.597496177684
 30
457.8760263139407
  0
VERTEX
  5
92D
330
7CE
100
AcDbEntity
  8
OBJECT
100
AcDbVertex
100
AcDb2dVertex
 10
1408.559680836722
 20
1939.970869411464
 30
457.8760263139407
 42
0.2599819294224869
  0
VERTEX
  5
92E
330
7CE
100
AcDbEntity
  8
OBJECT
100
AcDbVertex
100
AcDb2dVertex
 10
1355.810183523179
 20
1969.386952391699
 30
457.8760263139407
  0
VERTEX
  5
92F
330
7CE
100
AcDbEntity
  8
OBJECT
100
AcDbVertex
100
AcDb2dVertex
 10
1345.810183523179
 20
1969.386952391699
 30
457.8760263139407
  0
SEQEND
  5
930
330
7CE
100
AcDbEntity
  8
OBJECT
  0
POLYLINE
  5
7CF
330
5D
100
AcDbEntity
  8
OBJECT
100
AcDb2dPolyline
 66
     1
 10
0.0
 20
0.0
 30
457.8760263139407
 70
     1
  0
VERTEX
  5
931
330
7CF
100
AcDbEntity
  8
OBJECT
100
AcDbVertex
100
AcDb2dVertex
 10
1335.810183523168
 20
4263.912012529196
 30
457.8760263139407
 42
-0.2599819294224869
  0
VERTEX
  5
932
330
7CF
100
AcDbEntity
  8
OBJECT
100
AcDbVertex
100
AcDb2dVertex
 10
1283.060686209624
 20
4293.328095509433
 30
457.8760263139407
  0
VERTEX
  5
933
330
7CF
100
AcDbEntity
  8
OBJECT
100
AcDbVertex
100
AcDb2dVertex
 10
1266.788428504843
 20
4349.701468743211
 30
457.8760263139407
 42
0.1071012451607374
  0
VERTEX
  5
934
330
7CF
100
AcDbEntity
  8
OBJECT
100
AcDbVertex
100
AcDb2dVertex
 10
1220.564136621551
 20
4435.451906623441
 30
457.8760263139407
 42
0.1017902548787388
  0
VERTEX
  5
935
330
7CF
100
AcDbEntity
  8
OBJECT
100
AcDbVertex
100
AcDb2dVertex
 10
1204.661443194708
 20
4534.935275006914
 30
457.8760263139407
 42
-0.1702453322659084
  0
VERTEX
  5
936
330
7CF
100
AcDbEntity
  8
OBJECT
100
AcDbVertex
100
AcDb2dVertex
 10
1218.575828974431
 20
4646.577526764498
 30
457.8760263139407
 42
-0.3202504710924627
  0
VERTEX
  5
937
330
7CF
100
AcDbEntity
  8
OBJECT
100
AcDbVertex
100
AcDb2dVertex
 10
1295.486837337965
 20
4673.018083488061
 30
457.8760263139407
 42
0.3097779460924688
  0
VERTEX
  5
938
330
7CF
100
AcDbEntity
  8
OBJECT
100
AcDbVertex
100
AcDb2dVertex
 10
1306.246903991188
 20
4676.489401937939
 30
457.8760263139407
 42
-0.2322654973423929
  0
VERTEX
  5
939
330
7CF
100
AcDbEntity
  8
OBJECT
100
AcDbVertex
100
AcDb2dVertex
 10
1345.810183523168
 20
4695.915770935481
 30
457.8760263139407
 42
-0.2322654973423932
  0
VERTEX
  5
93A
330
7CF
100
AcDbEntity
  8
OBJECT
100
AcDbVertex
100
AcDb2dVertex
 10
1385.373463055149
 20
4676.489401937939
 30
457.8760263139407
 42
0.3097779460924686
  0
VERTEX
  5
93B
330
7CF
100
AcDbEntity
  8
OBJECT
100
AcDbVertex
100
AcDb2dVertex
 10
1396.133529708371
 20
4673.018083488062
 30
457.8760263139407
 42
-0.3202504710924629
  0
VERTEX
  5
93C
330
7CF
100
AcDbEntity
  8
OBJECT
100
AcDbVertex
100
AcDb2dVertex
 10
1473.044538071904
 20
4646.577526764498
 30
457.8760263139407
 42
-0.2159955467947232
  0
VERTEX
  5
93D
330
7CF
100
AcDbEntity
  8
OBJECT
100
AcDbVertex
100
AcDb2dVertex
 10
1478.06677844552
 20
4506.3374204345
 30
457.8760263139407
 42
0.071596476173349
  0
VERTEX
  5
93E
330
7CF
100
AcDbEntity
  8
OBJECT
100
AcDbVertex
100
AcDb2dVertex
 10
1471.056230424784
 20
4435.451906623444
 30
457.8760263139407
 42
0.1071012451607377
  0
VERTEX
  5
93F
330
7CF
100
AcDbEntity
  8
OBJECT
100
AcDbVertex
100
AcDb2dVertex
 10
1424.831938541493
 20
4349.701468743211
 30
457.8760263139407
  0
VERTEX
  5
940
330
7CF
100
AcDbEntity
  8
OBJECT
100
AcDbVertex
100
AcDb2dVertex
 10
1408.559680836711
 20
4293.328095509433
 30
457.8760263139407
 42
-0.2599819294224869
  0
VERTEX
  5
941
330
7CF
100
AcDbEntity
  8
OBJECT
100
AcDbVertex
100
AcDb2dVertex
 10
1355.810183523168
 20
4263.912012529194
 30
457.8760263139407
  0
VERTEX
  5
942
330
7CF
100
AcDbEntity
  8
OBJECT
100
AcDbVertex
100
AcDb2dVertex
 10
1345.810183523168
 20
4263.912012529194
 30
457.8760263139407
  0
SEQEND
  5
943
330
7CF
100
AcDbEntity
  8
OBJECT
  0
ENDBLK
  5
259
330
5D
100
AcDbEntity
  8
0
100
AcDbBlockEnd
  0
BLOCK
  5
25F
330
25D
100
AcDbEntity
  8
0
100
AcDbBlockBegin
  2
A$C1DD140A6
 70
     0
 10
0.0
 20
0.0
 30
0.0
  3
A$C1DD140A6
  1

  0
INSERT
  5
25E
330
25D
100
AcDbEntity
  8
0
100
AcDbBlockReference
  2
AGKA
 10
-17.80662865905285
 20
6136.502195678559
 30
0.0
 50
270.0
  0
ENDBLK
  5
260
330
25D
100
AcDbEntity
  8
0
100
AcDbBlockEnd
  0
BLOCK
  5
46A
330
460
100
AcDbEntity
  8
0
100
AcDbBlockBegin
  2
*D2
 70
     1
 10
0.0
 20
0.0
 30
0.0
  3
*D2
  1

  0
LINE
  5
461
330
460
100
AcDbEntity
  8
0
 62
     0
100
AcDbLine
 10
-475.8760263139411
 20
-1354.685183523141
 30
0.0
 11
-475.8760263139411
 21
-1350.074137496638
 31
0.0
  0
LINE
  5
462
330
460
100
AcDbEntity
  8
0
 62
     0
100
AcDbLine
 10
-457.8760263139407
 20
-1354.685183523141
 30
0.0
 11
-457.8760263139407
 21
-1350.074137496638
 31
0.0
  0
LINE
  5
463
330
460
100
AcDbEntity
  8
0
 62
     0
100
AcDbLine
 10
-473.3760263139409
 20
-1351.324137496638
 30
0.0
 11
-460.3760263139408
 21
-1351.324137496638
 31
0.0
  0
SOLID
  5
464
330
460
100
AcDbEntity
  8
0
 62
     0
100
AcDbTrace
 10
-473.3760263139409
 20
-1350.907470829971
 30
0.0
 11
-473.3760263139409
 21
-1351.740804163305
 31
0.0
 12
-475.8760263139411
 22
-1351.324137496638
 32
0.0
 13
-475.8760263139411
 23
-1351.324137496638
 33
0.0
  0
SOLID
  5
465
330
460
100
AcDbEntity
  8
0
 62
     0
100
AcDbTrace
 10
-460.3760263139408
 20
-1350.907470829971
 30
0.0
 11
-460.3760263139408
 21
-1351.740804163305
 31
0.0
 12
-457.8760263139407
 22
-1351.324137496638
 32
0.0
 13
-457.8760263139407
 23
-1351.324137496638
 33
0.0
  0
MTEXT
  5
466
330
460
100
AcDbEntity
  8
0
 62
     0
100
AcDbMText
 10
-466.8760263139408
 20
-1349.449137496638
 30
0.0
 40
2.5
 41
0.0
 71
     5
 72
     1
  1
18
1001
ACAD
1000
MTEXTBEGIN
1070
    73
1070
     1
1070
    44
1040
1.0
1070
    74
1070
     0
1000
MTEXTEND
1000
MTEXTBEGIN
1070
    73
1070
     1
1070
    44
1040
1.0
1070
    74
1070
     0
1000
MTEXTEND
1000
MTEXTBEGIN
1070
    73
1070
     1
1070
    44
1040
1.0
1070
    74
1070
     0
1000
MTEXTEND
  0
POINT
  5
467
330
460
100
AcDbEntity
  8
DEFPOINTS
 62
     0
100
AcDbPoint
 10
-475.8760263139411
 20
-1355.31018352314
 30
1969.101652887411
  0
POINT
  5
468
330
460
100
AcDbEntity
  8
DEFPOINTS
 62
     0
100
AcDbPoint
 10
-457.8760263139407
 20
-1355.31018352314
 30
1969.101652887411
  0
POINT
  5
469
330
460
100
AcDbEntity
  8
DEFPOINTS
 62
     0
100
AcDbPoint
 10
-457.8760263139407
 20
-1351.324137496638
 30
0.0
  0
ENDBLK
  5
46B
330
460
100
AcDbEntity
  8
0
100
AcDbBlockEnd
  0
BLOCK
  5
545
330
53B
100
AcDbEntity
  8
0
 62
     5
100
AcDbBlockBegin
  2
*D3
 70
     1
 10
0.0
 20
0.0
 30
0.0
  3
*D3
  1

  0
LINE
  5
53C
330
53B
100
AcDbEntity
  8
HATCH
 62
     0
100
AcDbLine
 10
1346.435183523166
 20
9645.915770935484
 30
0.0
 11
1445.095398287929
 21
9645.915770935484
 31
0.0
  0
LINE
  5
53D
330
53B
100
AcDbEntity
  8
HATCH
 62
     0
100
AcDbLine
 10
1276.179962110181
 20
9608.963613695756
 30
0.0
 11
1445.095398287929
 21
9608.963613695756
 31
0.0
  0
LINE
  5
53E
330
53B
100
AcDbEntity
  8
HATCH
 62
     0
100
AcDbLine
 10
1443.845398287929
 20
9643.415770935485
 30
0.0
 11
1443.845398287929
 21
9611.463613695756
 31
0.0
  0
SOLID
  5
53F
330
53B
100
AcDbEntity
  8
HATCH
 62
     0
100
AcDbTrace
 10
1443.428731621262
 20
9643.415770935485
 30
0.0
 11
1444.262064954594
 21
9643.415770935485
 31
0.0
 12
1443.845398287929
 22
9645.915770935484
 32
0.0
 13
1443.845398287929
 23
9645.915770935484
 33
0.0
  0
SOLID
  5
540
330
53B
100
AcDbEntity
  8
HATCH
 62
     0
100
AcDbTrace
 10
1443.428731621262
 20
9611.463613695756
 30
0.0
 11
1444.262064954594
 21
9611.463613695756
 31
0.0
 12
1443.845398287929
 22
9608.963613695756
 32
0.0
 13
1443.845398287929
 23
9608.963613695756
 33
0.0
  0
MTEXT
  5
541
330
53B
100
AcDbEntity
  8
HATCH
 62
     0
100
AcDbMText
 10
1441.762064954594
 20
9627.43969231562
 30
0.0
 40
2.5
 41
0.0
 71
     5
 72
     1
  1
36,952157
 11
0.0000000000000001
 21
1.0
 31
0.0
1001
ACAD
1000
MTEXTBEGIN
1070
    73
1070
     1
1070
    44
1040
1.0
1070
    74
1070
     0
1000
MTEXTEND
1000
MTEXTBEGIN
1070
    73
1070
     1
1070
    44
1040
1.0
1070
    74
1070
     0
1000
MTEXTEND
1000
MTEXTBEGIN
1070
    73
1070
     1
1070
    44
1040
1.0
1070
    74
1070
     0
1000
MTEXTEND
  0
POINT
  5
542
330
53B
100
AcDbEntity
  8
DEFPOINTS
 62
     0
100
AcDbPoint
 10
1345.810183523167
 20
9645.915770935484
 30
457.8760263139407
  0
POINT
  5
543
330
53B
100
AcDbEntity
  8
DEFPOINTS
 62
     0
100
AcDbPoint
 10
1275.55496211018
 20
9608.963613695756
 30
457.8760263139407
  0
POINT
  5
544
330
53B
100
AcDbEntity
  8
DEFPOINTS
 62
     0
100
AcDbPoint
 10
1443.845398287929
 20
9608.963613695756
 30
0.0
  0
ENDBLK
  5
546
330
53B
100
AcDbEntity
  8
0
 62
     5
100
AcDbBlockEnd
  0
BLOCK
  5
552
330
548
100
AcDbEntity
  8
0
 62
     5
100
AcDbBlockBegin
  2
*D4
 70
     1
 10
0.0
 20
0.0
 30
0.0
  3
*D4
  1

  0
LINE
  5
549
330
548
100
AcDbEntity
  8
HATCH
 62
     0
100
AcDbLine
 10
1345.810183523167
 20
9645.290770935481
 30
0.0
 11
1345.810183523167
 21
9527.355460074593
 31
0.0
  0
LINE
  5
54A
330
548
100
AcDbEntity
  8
HATCH
 62
     0
100
AcDbLine
 10
1275.55496211018
 20
9608.338613695757
 30
0.0
 11
1275.55496211018
 21
9527.355460074593
 31
0.0
  0
LINE
  5
54B
330
548
100
AcDbEntity
  8
HATCH
 62
     0
100
AcDbLine
 10
1343.310183523167
 20
9528.605460074592
 30
0.0
 11
1278.054962110179
 21
9528.605460074592
 31
0.0
  0
SOLID
  5
54C
330
548
100
AcDbEntity
  8
HATCH
 62
     0
100
AcDbTrace
 10
1343.310183523167
 20
9529.022126741258
 30
0.0
 11
1343.310183523167
 21
9528.188793407926
 31
0.0
 12
1345.810183523167
 22
9528.605460074592
 32
0.0
 13
1345.810183523167
 23
9528.605460074592
 33
0.0
  0
SOLID
  5
54D
330
548
100
AcDbEntity
  8
HATCH
 62
     0
100
AcDbTrace
 10
1278.054962110179
 20
9529.022126741258
 30
0.0
 11
1278.054962110179
 21
9528.188793407926
 31
0.0
 12
1275.55496211018
 22
9528.605460074592
 32
0.0
 13
1275.55496211018
 23
9528.605460074592
 33
0.0
  0
MTEXT
  5
54E
330
548
100
AcDbEntity
  8
HATCH
 62
     0
100
AcDbMText
 10
1310.682572816674
 20
9530.688793407923
 30
0.0
 40
2.5
 41
0.0
 71
     5
 72
     1
  1
70,255221
1001
ACAD
1000
MTEXTBEGIN
1070
    73
1070
     1
1070
    44
1040
1.0
1070
    74
1070
     0
1000
MTEXTEND
1000
MTEXTBEGIN
1070
    73
1070
     1
1070
    44
1040
1.0
1070
    74
1070
     0
1000
MTEXTEND
1000
MTEXTBEGIN
1070
    73
1070
     1
1070
    44
1040
1.0
1070
    74
1070
     0
1000
MTEXTEND
  0
POINT
  5
54F
330
548
100
AcDbEntity
  8
DEFPOINTS
 62
     0
100
AcDbPoint
 10
1345.810183523167
 20
9645.915770935484
 30
457.8760263139407
  0
POINT
  5
550
330
548
100
AcDbEntity
  8
DEFPOINTS
 62
     0
100
AcDbPoint
 10
1275.55496211018
 20
9608.963613695756
 30
457.8760263139407
  0
POINT
  5
551
330
548
100
AcDbEntity
  8
DEFPOINTS
 62
     0
100
AcDbPoint
 10
1275.55496211018
 20
9528.605460074592
 30
0.0
  0
ENDBLK
  5
553
330
548
100
AcDbEntity
  8
0
 62
     5
100
AcDbBlockEnd
  0
BLOCK
  5
561
330
557
100
AcDbEntity
  8
0
 62
     5
100
AcDbBlockBegin
  2
*D5
 70
     1
 10
0.0
 20
0.0
 30
0.0
  3
*D5
  1

  0
LINE
  5
558
330
557
100
AcDbEntity
  8
HATCH
 62
     0
100
AcDbLine
 10
1345.810183523167
 20
9646.540770935482
 30
0.0
 11
1345.810183523167
 21
9770.945227678383
 31
0.0
  0
LINE
  5
559
330
557
100
AcDbEntity
  8
HATCH
 62
     0
100
AcDbLine
 10
1371.857151507778
 20
9574.433082528937
 30
0.0
 11
1371.857151507778
 21
9770.945227678383
 31
0.0
  0
LINE
  5
55A
330
557
100
AcDbEntity
  8
HATCH
 62
     0
100
AcDbLine
 10
1348.310183523167
 20
9769.695227678383
 30
0.0
 11
1369.357151507778
 21
9769.695227678383
 31
0.0
  0
SOLID
  5
55B
330
557
100
AcDbEntity
  8
HATCH
 62
     0
100
AcDbTrace
 10
1348.310183523167
 20
9770.111894345049
 30
0.0
 11
1348.310183523167
 21
9769.278561011716
 31
0.0
 12
1345.810183523167
 22
9769.695227678383
 32
0.0
 13
1345.810183523167
 23
9769.695227678383
 33
0.0
  0
SOLID
  5
55C
330
557
100
AcDbEntity
  8
HATCH
 62
     0
100
AcDbTrace
 10
1369.357151507778
 20
9770.111894345049
 30
0.0
 11
1369.357151507778
 21
9769.278561011716
 31
0.0
 12
1371.857151507778
 22
9769.695227678383
 32
0.0
 13
1371.857151507778
 23
9769.695227678383
 33
0.0
  0
MTEXT
  5
55D
330
557
100
AcDbEntity
  8
HATCH
 62
     0
100
AcDbMText
 10
1358.833667515471
 20
9771.778561011718
 30
0.0
 40
2.5
 41
0.0
 71
     5
 72
     1
  1
26,046968
1001
ACAD
1000
MTEXTBEGIN
1070
    73
1070
     1
1070
    44
1040
1.0
1070
    74
1070
     0
1000
MTEXTEND
1000
MTEXTBEGIN
1070
    73
1070
     1
1070
    44
1040
1.0
1070
    74
1070
     0
1000
MTEXTEND
1000
MTEXTBEGIN
1070
    73
1070
     1
1070
    44
1040
1.0
1070
    74
1070
     0
1000
MTEXTEND
  0
POINT
  5
55E
330
557
100
AcDbEntity
  8
DEFPOINTS
 62
     0
100
AcDbPoint
 10
1345.810183523167
 20
9645.915770935484
 30
457.8760263139407
  0
POINT
  5
55F
330
557
100
AcDbEntity
  8
DEFPOINTS
 62
     0
100
AcDbPoint
 10
1371.857151507778
 20
9573.808082528936
 30
457.8760263139407
  0
POINT
  5
560
330
557
100
AcDbEntity
  8
DEFPOINTS
 62
     0
100
AcDbPoint
 10
1371.857151507778
 20
9769.695227678383
 30
0.0
  0
ENDBLK
  5
562
330
557
100
AcDbEntity
  8
0
 62
     5
100
AcDbBlockEnd
  0
BLOCK
  5
56E
330
564
100
AcDbEntity
  8
0
 62
     5
100
AcDbBlockBegin
  2
*D6
 70
     1
 10
0.0
 20
0.0
 30
0.0
  3
*D6
  1

  0
LINE
  5
565
330
564
100
AcDbEntity
  8
HATCH
 62
     0
100
AcDbLine
 10
1346.435183523166
 20
9645.915770935484
 30
0.0
 11
1454.929783634623
 21
9645.915770935484
 31
0.0
  0
LINE
  5
566
330
564
100
AcDbEntity
  8
HATCH
 62
     0
100
AcDbLine
 10
1372.482151507778
 20
9573.808082528936
 30
0.0
 11
1454.929783634623
 21
9573.808082528936
 31
0.0
  0
LINE
  5
567
330
564
100
AcDbEntity
  8
HATCH
 62
     0
100
AcDbLine
 10
1453.679783634623
 20
9643.415770935485
 30
0.0
 11
1453.679783634623
 21
9576.308082528937
 31
0.0
  0
SOLID
  5
568
330
564
100
AcDbEntity
  8
HATCH
 62
     0
100
AcDbTrace
 10
1453.263116967955
 20
9643.415770935485
 30
0.0
 11
1454.09645030129
 21
9643.415770935485
 31
0.0
 12
1453.679783634623
 22
9645.915770935484
 32
0.0
 13
1453.679783634623
 23
9645.915770935484
 33
0.0
  0
SOLID
  5
569
330
564
100
AcDbEntity
  8
HATCH
 62
     0
100
AcDbTrace
 10
1453.263116967955
 20
9576.308082528937
 30
0.0
 11
1454.09645030129
 21
9576.308082528937
 31
0.0
 12
1453.679783634623
 22
9573.808082528936
 32
0.0
 13
1453.679783634623
 23
9573.808082528936
 33
0.0
  0
MTEXT
  5
56A
330
564
100
AcDbEntity
  8
HATCH
 62
     0
100
AcDbMText
 10
1451.596450301288
 20
9609.861926732213
 30
0.0
 40
2.5
 41
0.0
 71
     5
 72
     1
  1
72,107688
 11
0.0000000000000001
 21
1.0
 31
0.0
1001
ACAD
1000
MTEXTBEGIN
1070
    73
1070
     1
1070
    44
1040
1.0
1070
    74
1070
     0
1000
MTEXTEND
1000
MTEXTBEGIN
1070
    73
1070
     1
1070
    44
1040
1.0
1070
    74
1070
     0
1000
MTEXTEND
1000
MTEXTBEGIN
1070
    73
1070
     1
1070
    44
1040
1.0
1070
    74
1070
     0
1000
MTEXTEND
  0
POINT
  5
56B
330
564
100
AcDbEntity
  8
DEFPOINTS
 62
     0
100
AcDbPoint
 10
1345.810183523167
 20
9645.915770935484
 30
457.8760263139407
  0
POINT
  5
56C
330
564
100
AcDbEntity
  8
DEFPOINTS
 62
     0
100
AcDbPoint
 10
1371.857151507778
 20
9573.808082528936
 30
457.8760263139407
  0
POINT
  5
56D
330
564
100
AcDbEntity
  8
DEFPOINTS
 62
     0
100
AcDbPoint
 10
1453.679783634623
 20
9573.808082528936
 30
0.0
  0
ENDBLK
  5
56F
330
564
100
AcDbEntity
  8
0
 62
     5
100
AcDbBlockEnd
  0
BLOCK
  5
57D
330
573
100
AcDbEntity
  8
0
 62
     5
100
AcDbBlockBegin
  2
*D7
 70
     1
 10
0.0
 20
0.0
 30
0.0
  3
*D7
  1

  0
LINE
  5
574
330
573
100
AcDbEntity
  8
HATCH
 62
     0
100
AcDbLine
 10
1345.185183523168
 20
9645.915770935484
 30
0.0
 11
905.0965891670641
 21
9645.915770935484
 31
0.0
  0
LINE
  5
575
330
573
100
AcDbEntity
  8
HATCH
 62
     0
100
AcDbLine
 10
970.5137857934531
 20
9443.845873696497
 30
0.0
 11
905.0965891670641
 21
9443.845873696497
 31
0.0
  0
LINE
  5
576
330
573
100
AcDbEntity
  8
HATCH
 62
     0
100
AcDbLine
 10
906.346589167064
 20
9643.415770935485
 30
0.0
 11
906.3465891670636
 21
9446.345873696497
 31
0.0
  0
SOLID
  5
577
330
573
100
AcDbEntity
  8
HATCH
 62
     0
100
AcDbTrace
 10
905.9299225003972
 20
9643.415770935485
 30
0.0
 11
906.7632558337306
 21
9643.415770935485
 31
0.0
 12
906.346589167064
 22
9645.915770935484
 32
0.0
 13
906.346589167064
 23
9645.915770935484
 33
0.0
  0
SOLID
  5
578
330
573
100
AcDbEntity
  8
HATCH
 62
     0
100
AcDbTrace
 10
905.9299225003972
 20
9446.345873696497
 30
0.0
 11
906.7632558337303
 21
9446.345873696497
 31
0.0
 12
906.3465891670636
 22
9443.845873696497
 32
0.0
 13
906.3465891670636
 23
9443.845873696497
 33
0.0
  0
MTEXT
  5
579
330
573
100
AcDbEntity
  8
HATCH
 62
     0
100
AcDbMText
 10
904.263255833729
 20
9544.88082231599
 30
0.0
 40
2.5
 41
0.0
 71
     5
 72
     1
  1
202,069897
 11
0.0000000000000001
 21
1.0
 31
0.0
1001
ACAD
1000
MTEXTBEGIN
1070
    73
1070
     1
1070
    44
1040
1.0
1070
    74
1070
     0
1000
MTEXTEND
1000
MTEXTBEGIN
1070
    73
1070
     1
1070
    44
1040
1.0
1070
    74
1070
     0
1000
MTEXTEND
1000
MTEXTBEGIN
1070
    73
1070
     1
1070
    44
1040
1.0
1070
    74
1070
     0
1000
MTEXTEND
  0
POINT
  5
57A
330
573
100
AcDbEntity
  8
DEFPOINTS
 62
     0
100
AcDbPoint
 10
1345.810183523167
 20
9645.915770935484
 30
457.8760263139407
  0
POINT
  5
57B
330
573
100
AcDbEntity
  8
DEFPOINTS
 62
     0
100
AcDbPoint
 10
971.1387857934532
 20
9443.845873696497
 30
457.8760263139407
  0
POINT
  5
57C
330
573
100
AcDbEntity
  8
DEFPOINTS
 62
     0
100
AcDbPoint
 10
906.3465891670636
 20
9443.845873696497
 30
0.0
  0
ENDBLK
  5
57E
330
573
100
AcDbEntity
  8
0
 62
     5
100
AcDbBlockEnd
  0
BLOCK
  5
58A
330
580
100
AcDbEntity
  8
0
 62
     5
100
AcDbBlockBegin
  2
*D8
 70
     1
 10
0.0
 20
0.0
 30
0.0
  3
*D8
  1

  0
LINE
  5
581
330
580
100
AcDbEntity
  8
HATCH
 62
     0
100
AcDbLine
 10
971.1387857934532
 20
9444.470873696497
 30
0.0
 11
971.1387857934532
 21
9838.488402859885
 31
0.0
  0
LINE
  5
582
330
580
100
AcDbEntity
  8
HATCH
 62
     0
100
AcDbLine
 10
1345.810183523167
 20
9646.540770935482
 30
0.0
 11
1345.810183523167
 21
9838.488402859885
 31
0.0
  0
LINE
  5
583
330
580
100
AcDbEntity
  8
HATCH
 62
     0
100
AcDbLine
 10
973.6387857934531
 20
9837.238402859885
 30
0.0
 11
1343.310183523167
 21
9837.238402859885
 31
0.0
  0
SOLID
  5
584
330
580
100
AcDbEntity
  8
HATCH
 62
     0
100
AcDbTrace
 10
973.6387857934531
 20
9837.655069526549
 30
0.0
 11
973.6387857934531
 21
9836.821736193217
 31
0.0
 12
971.1387857934532
 22
9837.238402859885
 32
0.0
 13
971.1387857934532
 23
9837.238402859885
 33
0.0
  0
SOLID
  5
585
330
580
100
AcDbEntity
  8
HATCH
 62
     0
100
AcDbTrace
 10
1343.310183523167
 20
9837.655069526549
 30
0.0
 11
1343.310183523167
 21
9836.821736193217
 31
0.0
 12
1345.810183523167
 22
9837.238402859885
 32
0.0
 13
1345.810183523167
 23
9837.238402859885
 33
0.0
  0
MTEXT
  5
586
330
580
100
AcDbEntity
  8
HATCH
 62
     0
100
AcDbMText
 10
1158.474484658309
 20
9839.32173619322
 30
0.0
 40
2.5
 41
0.0
 71
     5
 72
     1
  1
374,6714
1001
ACAD
1000
MTEXTBEGIN
1070
    73
1070
     1
1070
    44
1040
1.0
1070
    74
1070
     0
1000
MTEXTEND
1000
MTEXTBEGIN
1070
    73
1070
     1
1070
    44
1040
1.0
1070
    74
1070
     0
1000
MTEXTEND
1000
MTEXTBEGIN
1070
    73
1070
     1
1070
    44
1040
1.0
1070
    74
1070
     0
1000
MTEXTEND
  0
POINT
  5
587
330
580
100
AcDbEntity
  8
DEFPOINTS
 62
     0
100
AcDbPoint
 10
971.1387857934532
 20
9443.845873696497
 30
457.8760263139407
  0
POINT
  5
588
330
580
100
AcDbEntity
  8
DEFPOINTS
 62
     0
100
AcDbPoint
 10
1345.810183523167
 20
9645.915770935484
 30
457.8760263139407
  0
POINT
  5
589
330
580
100
AcDbEntity
  8
DEFPOINTS
 62
     0
100
AcDbPoint
 10
1345.810183523167
 20
9837.238402859885
 30
0.0
  0
ENDBLK
  5
58B
330
580
100
AcDbEntity
  8
0
 62
     5
100
AcDbBlockEnd
  0
BLOCK
  5
599
330
58F
100
AcDbEntity
  8
0
 62
     5
100
AcDbBlockBegin
  2
*D9
 70
     1
 10
0.0
 20
0.0
 30
0.0
  3
*D9
  1

  0
LINE
  5
590
330
58F
100
AcDbEntity
  8
HATCH
 62
     0
100
AcDbLine
 10
1345.810183523167
 20
9646.540770935482
 30
0.0
 11
1345.810183523167
 21
9873.579409896578
 31
0.0
  0
LINE
  5
591
330
58F
100
AcDbEntity
  8
HATCH
 62
     0
100
AcDbLine
 10
1044.326292184043
 20
9283.934826789838
 30
0.0
 11
1044.326292184043
 21
9873.579409896578
 31
0.0
  0
LINE
  5
592
330
58F
100
AcDbEntity
  8
HATCH
 62
     0
100
AcDbLine
 10
1343.310183523167
 20
9872.329409896579
 30
0.0
 11
1046.826292184043
 21
9872.329409896579
 31
0.0
  0
SOLID
  5
593
330
58F
100
AcDbEntity
  8
HATCH
 62
     0
100
AcDbTrace
 10
1343.310183523167
 20
9872.746076563245
 30
0.0
 11
1343.310183523167
 21
9871.912743229913
 31
0.0
 12
1345.810183523167
 22
9872.329409896579
 32
0.0
 13
1345.810183523167
 23
9872.329409896579
 33
0.0
  0
SOLID
  5
594
330
58F
100
AcDbEntity
  8
HATCH
 62
     0
100
AcDbTrace
 10
1046.826292184043
 20
9872.746076563245
 30
0.0
 11
1046.826292184043
 21
9871.912743229913
 31
0.0
 12
1044.326292184043
 22
9872.329409896579
 32
0.0
 13
1044.326292184043
 23
9872.329409896579
 33
0.0
  0
MTEXT
  5
595
330
58F
100
AcDbEntity
  8
HATCH
 62
     0
100
AcDbMText
 10
1195.068237853605
 20
9874.412743229912
 30
0.0
 40
2.5
 41
0.0
 71
     5
 72
     1
  1
301,48389
1001
ACAD
1000
MTEXTBEGIN
1070
    73
1070
     1
1070
    44
1040
1.0
1070
    74
1070
     0
1000
MTEXTEND
1000
MTEXTBEGIN
1070
    73
1070
     1
1070
    44
1040
1.0
1070
    74
1070
     0
1000
MTEXTEND
1000
MTEXTBEGIN
1070
    73
1070
     1
1070
    44
1040
1.0
1070
    74
1070
     0
1000
MTEXTEND
  0
POINT
  5
596
330
58F
100
AcDbEntity
  8
DEFPOINTS
 62
     0
100
AcDbPoint
 10
1345.810183523167
 20
9645.915770935484
 30
457.8760263139407
  0
POINT
  5
597
330
58F
100
AcDbEntity
  8
DEFPOINTS
 62
     0
100
AcDbPoint
 10
1044.326292184043
 20
9283.309826789841
 30
457.8760263139411
  0
POINT
  5
598
330
58F
100
AcDbEntity
  8
DEFPOINTS
 62
     0
100
AcDbPoint
 10
1044.326292184043
 20
9872.329409896579
 30
0.0
  0
ENDBLK
  5
59A
330
58F
100
AcDbEntity
  8
0
 62
     5
100
AcDbBlockEnd
  0
BLOCK
  5
5A6
330
59C
100
AcDbEntity
  8
0
 62
     5
100
AcDbBlockBegin
  2
*D10
 70
     1
 10
0.0
 20
0.0
 30
0.0
  3
*D10
  1

  0
LINE
  5
59D
330
59C
100
AcDbEntity
  8
HATCH
 62
     0
100
AcDbLine
 10
1345.185183523168
 20
9645.915770935484
 30
0.0
 11
931.6663239306363
 21
9645.915770935484
 31
0.0
  0
LINE
  5
59E
330
59C
100
AcDbEntity
  8
HATCH
 62
     0
100
AcDbLine
 10
1043.701292184043
 20
9283.934826789838
 30
0.0
 11
931.6663239306359
 21
9283.934826789838
 31
0.0
  0
LINE
  5
59F
330
59C
100
AcDbEntity
  8
HATCH
 62
     0
100
AcDbLine
 10
932.9163239306362
 20
9643.415770935485
 30
0.0
 11
932.9163239306362
 21
9286.434826789841
 31
0.0
  0
SOLID
  5
5A0
330
59C
100
AcDbEntity
  8
HATCH
 62
     0
100
AcDbTrace
 10
932.4996572639696
 20
9643.415770935485
 30
0.0
 11
933.3329905973027
 21
9643.415770935485
 31
0.0
 12
932.9163239306362
 22
9645.915770935484
 32
0.0
 13
932.9163239306362
 23
9645.915770935484
 33
0.0
  0
SOLID
  5
5A1
330
59C
100
AcDbEntity
  8
HATCH
 62
     0
100
AcDbTrace
 10
932.4996572639696
 20
9286.434826789841
 30
0.0
 11
933.3329905973027
 21
9286.434826789841
 31
0.0
 12
932.9163239306362
 22
9283.934826789838
 32
0.0
 13
932.9163239306362
 23
9283.934826789838
 33
0.0
  0
MTEXT
  5
5A2
330
59C
100
AcDbEntity
  8
HATCH
 62
     0
100
AcDbMText
 10
930.8329905973012
 20
9464.925298862659
 30
0.0
 40
2.5
 41
0.0
 71
     5
 72
     1
  1
361,98094
 11
0.0000000000000001
 21
1.0
 31
0.0
1001
ACAD
1000
MTEXTBEGIN
1070
    73
1070
     1
1070
    44
1040
1.0
1070
    74
1070
     0
1000
MTEXTEND
1000
MTEXTBEGIN
1070
    73
1070
     1
1070
    44
1040
1.0
1070
    74
1070
     0
1000
MTEXTEND
1000
MTEXTBEGIN
1070
    73
1070
     1
1070
    44
1040
1.0
1070
    74
1070
     0
1000
MTEXTEND
  0
POINT
  5
5A3
330
59C
100
AcDbEntity
  8
DEFPOINTS
 62
     0
100
AcDbPoint
 10
1345.810183523167
 20
9645.915770935484
 30
457.8760263139407
  0
POINT
  5
5A4
330
59C
100
AcDbEntity
  8
DEFPOINTS
 62
     0
100
AcDbPoint
 10
1044.326292184043
 20
9283.934826789838
 30
0.0
  0
POINT
  5
5A5
330
59C
100
AcDbEntity
  8
DEFPOINTS
 62
     0
100
AcDbPoint
 10
932.9163239306362
 20
9283.934826789838
 30
0.0
  0
ENDBLK
  5
5A7
330
59C
100
AcDbEntity
  8
0
 62
     5
100
AcDbBlockEnd
  0
BLOCK
  5
5B5
330
5AB
100
AcDbEntity
  8
0
 62
     5
100
AcDbBlockBegin
  2
*D11
 70
     1
 10
0.0
 20
0.0
 30
0.0
  3
*D11
  1

  0
LINE
  5
5AC
330
5AB
100
AcDbEntity
  8
HATCH
 62
     0
100
AcDbLine
 10
1346.435183523166
 20
9645.915770935484
 30
0.0
 11
1616.727150034916
 21
9645.915770935484
 31
0.0
  0
LINE
  5
5AD
330
5AB
100
AcDbEntity
  8
HATCH
 62
     0
100
AcDbLine
 10
1335.665155772274
 20
9325.258531794887
 30
0.0
 11
1616.727150034916
 21
9325.258531794887
 31
0.0
  0
LINE
  5
5AE
330
5AB
100
AcDbEntity
  8
HATCH
 62
     0
100
AcDbLine
 10
1615.477150034916
 20
9643.415770935485
 30
0.0
 11
1615.477150034916
 21
9327.758531794888
 31
0.0
  0
SOLID
  5
5AF
330
5AB
100
AcDbEntity
  8
HATCH
 62
     0
100
AcDbTrace
 10
1615.060483368249
 20
9643.415770935485
 30
0.0
 11
1615.893816701583
 21
9643.415770935485
 31
0.0
 12
1615.477150034916
 22
9645.915770935484
 32
0.0
 13
1615.477150034916
 23
9645.915770935484
 33
0.0
  0
SOLID
  5
5B0
330
5AB
100
AcDbEntity
  8
HATCH
 62
     0
100
AcDbTrace
 10
1615.060483368249
 20
9327.758531794888
 30
0.0
 11
1615.893816701583
 21
9327.758531794888
 31
0.0
 12
1615.477150034916
 22
9325.258531794887
 32
0.0
 13
1615.477150034916
 23
9325.258531794887
 33
0.0
  0
MTEXT
  5
5B1
330
5AB
100
AcDbEntity
  8
HATCH
 62
     0
100
AcDbMText
 10
1613.393816701581
 20
9485.587151365184
 30
0.0
 40
2.5
 41
0.0
 71
     5
 72
     1
  1
320,65724
 11
0.0000000000000001
 21
1.0
 31
0.0
1001
ACAD
1000
MTEXTBEGIN
1070
    73
1070
     1
1070
    44
1040
1.0
1070
    74
1070
     0
1000
MTEXTEND
1000
MTEXTBEGIN
1070
    73
1070
     1
1070
    44
1040
1.0
1070
    74
1070
     0
1000
MTEXTEND
1000
MTEXTBEGIN
1070
    73
1070
     1
1070
    44
1040
1.0
1070
    74
1070
     0
1000
MTEXTEND
  0
POINT
  5
5B2
330
5AB
100
AcDbEntity
  8
DEFPOINTS
 62
     0
100
AcDbPoint
 10
1345.810183523167
 20
9645.915770935484
 30
457.8760263139407
  0
POINT
  5
5B3
330
5AB
100
AcDbEntity
  8
DEFPOINTS
 62
     0
100
AcDbPoint
 10
1335.040155772273
 20
9325.258531794887
 30
457.8760263139411
  0
POINT
  5
5B4
330
5AB
100
AcDbEntity
  8
DEFPOINTS
 62
     0
100
AcDbPoint
 10
1615.477150034916
 20
9325.258531794887
 30
0.0
  0
ENDBLK
  5
5B6
330
5AB
100
AcDbEntity
  8
0
 62
     5
100
AcDbBlockEnd
  0
BLOCK
  5
5C3
330
5B8
100
AcDbEntity
  8
0
 62
     5
100
AcDbBlockBegin
  2
*D12
 70
     1
 10
0.0
 20
0.0
 30
0.0
  3
*D12
  1

  0
LINE
  5
5B9
330
5B8
100
AcDbEntity
  8
HATCH
 62
     0
100
AcDbLine
 10
1345.810183523167
 20
9645.290770935481
 30
0.0
 11
1345.810183523167
 21
9303.631490519128
 31
0.0
  0
LINE
  5
5BA
330
5B8
100
AcDbEntity
  8
HATCH
 62
     0
100
AcDbLine
 10
1335.040155772273
 20
9324.633531794887
 30
0.0
 11
1335.040155772273
 21
9303.631490519128
 31
0.0
  0
LINE
  5
5BB
330
5B8
100
AcDbEntity
  8
HATCH
 62
     0
100
AcDbLine
 10
1343.310183523167
 20
9304.881490519129
 30
0.0
 11
1337.540155772273
 21
9304.881490519129
 31
0.0
  0
LINE
  5
5BC
330
5B8
100
AcDbEntity
  8
HATCH
 62
     0
100
AcDbLine
 10
1335.040155772273
 20
9304.881490519129
 30
0.0
 11
1310.456822438941
 21
9304.881490519129
 31
0.0
  0
SOLID
  5
5BD
330
5B8
100
AcDbEntity
  8
HATCH
 62
     0
100
AcDbTrace
 10
1343.310183523167
 20
9305.298157185793
 30
0.0
 11
1343.310183523167
 21
9304.464823852462
 31
0.0
 12
1345.810183523167
 22
9304.881490519129
 32
0.0
 13
1345.810183523167
 23
9304.881490519129
 33
0.0
  0
SOLID
  5
5BE
330
5B8
100
AcDbEntity
  8
HATCH
 62
     0
100
AcDbTrace
 10
1337.540155772273
 20
9305.298157185793
 30
0.0
 11
1337.540155772273
 21
9304.464823852462
 31
0.0
 12
1335.040155772273
 22
9304.881490519129
 32
0.0
 13
1335.040155772273
 23
9304.881490519129
 33
0.0
  0
MTEXT
  5
5BF
330
5B8
100
AcDbEntity
  8
HATCH
 62
     0
100
AcDbMText
 10
1321.498489105608
 20
9306.964823852462
 30
0.0
 40
2.5
 41
0.0
 71
     5
 72
     1
  1
10,7700278
1001
ACAD
1000
MTEXTBEGIN
1070
    73
1070
     1
1070
    44
1040
1.0
1070
    74
1070
     0
1000
MTEXTEND
1000
MTEXTBEGIN
1070
    73
1070
     1
1070
    44
1040
1.0
1070
    74
1070
     0
1000
MTEXTEND
1000
MTEXTBEGIN
1070
    73
1070
     1
1070
    44
1040
1.0
1070
    74
1070
     0
1000
MTEXTEND
  0
POINT
  5
5C0
330
5B8
100
AcDbEntity
  8
DEFPOINTS
 62
     0
100
AcDbPoint
 10
1345.810183523167
 20
9645.915770935484
 30
457.8760263139407
  0
POINT
  5
5C1
330
5B8
100
AcDbEntity
  8
DEFPOINTS
 62
     0
100
AcDbPoint
 10
1335.040155772273
 20
9325.258531794887
 30
457.8760263139411
  0
POINT
  5
5C2
330
5B8
100
AcDbEntity
  8
DEFPOINTS
 62
     0
100
AcDbPoint
 10
1335.040155772273
 20
9304.881490519129
 30
0.0
  0
ENDBLK
  5
5C4
330
5B8
100
AcDbEntity
  8
0
 62
     5
100
AcDbBlockEnd
  0
BLOCK
  5
7E8
330
7D8
100
AcDbEntity
  8
0
100
AcDbBlockBegin
  2
*U13
 70
     1
 10
0.0
 20
0.0
 30
0.0
  3
*U13
  1

  0
SOLID
  5
7D9
330
7D8
100
AcDbEntity
  8
HATCH
  6
CONTINUOUS
 62
     2
100
AcDbTrace
 10
1419.810183523142
 20
1969.849564783967
 30
0.0
 11
1414.810183523142
 21
1968.349564783968
 31
0.0
 12
1419.810183523142
 22
1968.349564783967
 32
0.0
 13
1419.810183523142
 23
1968.349564783967
 33
0.0
  0
SOLID
  5
7DA
330
7D8
100
AcDbEntity
  8
HATCH
  6
CONTINUOUS
 62
     2
100
AcDbTrace
 10
1414.810183523143
 20
1994.849564783967
 30
0.0
 11
1414.810183523142
 21
1968.349564783968
 31
0.0
 12
1419.810183523142
 22
1969.849564783967
 32
0.0
 13
1419.810183523142
 23
1969.849564783967
 33
0.0
  0
SOLID
  5
7DB
330
7D8
100
AcDbEntity
  8
HATCH
  6
CONTINUOUS
 62
     2
100
AcDbTrace
 10
1419.810183523143
 20
2019.849564783969
 30
0.0
 11
1414.810183523143
 21
1994.849564783967
 31
0.0
 12
1419.810183523142
 22
1969.849564783967
 32
0.0
 13
1419.810183523142
 23
1969.849564783967
 33
0.0
  0
SOLID
  5
7DC
330
7D8
100
AcDbEntity
  8
HATCH
  6
CONTINUOUS
 62
     2
100
AcDbTrace
 10
1414.810183523144
 20
2021.349564783969
 30
0.0
 11
1414.810183523143
 21
1994.849564783967
 31
0.0
 12
1419.810183523143
 22
2019.849564783969
 32
0.0
 13
1419.810183523143
 23
2019.849564783969
 33
0.0
  0
SOLID
  5
7DD
330
7D8
100
AcDbEntity
  8
HATCH
  6
CONTINUOUS
 62
     2
100
AcDbTrace
 10
1419.810183523143
 20
2021.349564783969
 30
0.0
 11
1414.810183523144
 21
2021.349564783969
 31
0.0
 12
1419.810183523143
 22
2019.849564783969
 32
0.0
 13
1419.810183523143
 23
2019.849564783969
 33
0.0
  0
SOLID
  5
7DE
330
7D8
100
AcDbEntity
  8
HATCH
  6
CONTINUOUS
 62
     2
100
AcDbTrace
 10
1492.224397085516
 20
1980.435351221593
 30
0.0
 11
1429.810183523143
 21
1979.849564783966
 31
0.0
 12
1490.810183523143
 22
1979.849564783966
 32
0.0
 13
1490.810183523143
 23
1979.849564783966
 33
0.0
  0
SOLID
  5
7DF
330
7D8
100
AcDbEntity
  8
HATCH
  6
CONTINUOUS
 62
     2
100
AcDbTrace
 10
1492.810183523142
 20
1981.849564783966
 30
0.0
 11
1429.810183523143
 21
1979.849564783966
 31
0.0
 12
1492.224397085516
 22
1980.435351221593
 32
0.0
 13
1492.224397085516
 23
1980.435351221593
 33
0.0
  0
SOLID
  5
7E0
330
7D8
100
AcDbEntity
  8
HATCH
  6
CONTINUOUS
 62
     2
100
AcDbTrace
 10
1492.810183523142
 20
2007.849564783966
 30
0.0
 11
1429.810183523143
 21
1979.849564783966
 31
0.0
 12
1492.810183523142
 22
1981.849564783966
 32
0.0
 13
1492.810183523142
 23
1981.849564783966
 33
0.0
  0
SOLID
  5
7E1
330
7D8
100
AcDbEntity
  8
HATCH
  6
CONTINUOUS
 62
     2
100
AcDbTrace
 10
1492.810183523142
 20
2007.849564783966
 30
0.0
 11
1422.739115711276
 21
1976.920632595833
 31
0.0
 12
1429.810183523143
 22
1979.849564783966
 32
0.0
 13
1429.810183523143
 23
1979.849564783966
 33
0.0
  0
SOLID
  5
7E2
330
7D8
100
AcDbEntity
  8
HATCH
  6
CONTINUOUS
 62
     2
100
AcDbTrace
 10
1492.224397085516
 20
2009.26377834634
 30
0.0
 11
1422.739115711276
 21
1976.920632595833
 31
0.0
 12
1492.810183523142
 22
2007.849564783966
 32
0.0
 13
1492.810183523142
 23
2007.849564783966
 33
0.0
  0
SOLID
  5
7E3
330
7D8
100
AcDbEntity
  8
HATCH
  6
CONTINUOUS
 62
     2
100
AcDbTrace
 10
1490.810183523142
 20
2009.849564783967
 30
0.0
 11
1422.739115711276
 21
1976.920632595833
 31
0.0
 12
1492.224397085516
 22
2009.26377834634
 32
0.0
 13
1492.224397085516
 23
2009.26377834634
 33
0.0
  0
SOLID
  5
7E4
330
7D8
100
AcDbEntity
  8
HATCH
  6
CONTINUOUS
 62
     2
100
AcDbTrace
 10
1422.739115711276
 20
1976.920632595833
 30
0.0
 11
1490.810183523142
 21
2009.849564783967
 31
0.0
 12
1429.810183523143
 22
2009.849564783967
 32
0.0
 13
1429.810183523143
 23
2009.849564783967
 33
0.0
  0
SOLID
  5
7E5
330
7D8
100
AcDbEntity
  8
HATCH
  6
CONTINUOUS
 62
     2
100
AcDbTrace
 10
1429.810183523143
 20
2009.849564783967
 30
0.0
 11
1419.810183523142
 21
1969.849564783967
 31
0.0
 12
1422.739115711276
 22
1976.920632595833
 32
0.0
 13
1422.739115711276
 23
1976.920632595833
 33
0.0
  0
SOLID
  5
7E6
330
7D8
100
AcDbEntity
  8
HATCH
  6
CONTINUOUS
 62
     2
100
AcDbTrace
 10
1422.739115711278
 20
2012.778496972102
 30
0.0
 11
1419.810183523142
 21
1969.849564783967
 31
0.0
 12
1429.810183523143
 22
2009.849564783967
 32
0.0
 13
1429.810183523143
 23
2009.849564783967
 33
0.0
  0
SOLID
  5
7E7
330
7D8
100
AcDbEntity
  8
HATCH
  6
CONTINUOUS
 62
     2
100
AcDbTrace
 10
1419.810183523143
 20
2019.849564783967
 30
0.0
 11
1419.810183523142
 21
1969.849564783967
 31
0.0
 12
1422.739115711278
 22
2012.778496972102
 32
0.0
 13
1422.739115711278
 23
2012.778496972102
 33
0.0
  0
ENDBLK
  5
7E9
330
7D8
100
AcDbEntity
  8
0
100
AcDbBlockEnd
  0
BLOCK
  5
809
330
7EA
100
AcDbEntity
  8
0
100
AcDbBlockBegin
  2
*U14
 70
     1
 10
0.0
 20
0.0
 30
0.0
  3
*U14
  1

  0
SOLID
  5
7EB
330
7EA
100
AcDbEntity
  8
HATCH
  6
CONTINUOUS
 62
     5
100
AcDbTrace
 10
1367.847860917557
 20
1542.501786085689
 30
0.0
 11
1323.772506128806
 21
1542.501786085687
 31
0.0
 12
1345.810183523182
 22
1537.383193985411
 32
0.0
 13
1345.810183523182
 23
1537.383193985411
 33
0.0
  0
SOLID
  5
7EC
330
7EA
100
AcDbEntity
  8
HATCH
  6
CONTINUOUS
 62
     5
100
AcDbTrace
 10
1306.246903991201
 20
1556.809562982954
 30
0.0
 11
1323.772506128806
 21
1542.501786085687
 31
0.0
 12
1367.847860917557
 22
1542.501786085689
 32
0.0
 13
1367.847860917557
 23
1542.501786085689
 33
0.0
  0
SOLID
  5
7ED
330
7EA
100
AcDbEntity
  8
HATCH
  6
CONTINUOUS
 62
     5
100
AcDbTrace
 10
1385.373463055162
 20
1556.809562982954
 30
0.0
 11
1306.246903991201
 21
1556.809562982954
 31
0.0
 12
1367.847860917557
 22
1542.501786085689
 32
0.0
 13
1367.847860917557
 23
1542.501786085689
 33
0.0
  0
SOLID
  5
7EE
330
7EA
100
AcDbEntity
  8
HATCH
  6
CONTINUOUS
 62
     5
100
AcDbTrace
 10
1301.404539614408
 20
1560.211837881721
 30
0.0
 11
1306.246903991201
 21
1556.809562982954
 31
0.0
 12
1385.373463055162
 22
1556.809562982954
 32
0.0
 13
1385.373463055162
 23
1556.809562982954
 33
0.0
  0
SOLID
  5
7EF
330
7EA
100
AcDbEntity
  8
HATCH
  6
CONTINUOUS
 62
     5
100
AcDbTrace
 10
1390.215827431956
 20
1560.211837881722
 30
0.0
 11
1301.404539614408
 21
1560.211837881721
 31
0.0
 12
1385.373463055162
 22
1556.809562982954
 32
0.0
 13
1385.373463055162
 23
1556.809562982954
 33
0.0
  0
SOLID
  5
7F0
330
7EA
100
AcDbEntity
  8
HATCH
  6
CONTINUOUS
 62
     5
100
AcDbTrace
 10
1396.133529708385
 20
1560.280881432833
 30
0.0
 11
1301.404539614408
 21
1560.211837881721
 31
0.0
 12
1390.215827431956
 22
1560.211837881722
 32
0.0
 13
1390.215827431956
 23
1560.211837881722
 33
0.0
  0
SOLID
  5
7F1
330
7EA
100
AcDbEntity
  8
HATCH
  6
CONTINUOUS
 62
     5
100
AcDbTrace
 10
1295.486837337979
 20
1560.280881432833
 30
0.0
 11
1301.404539614408
 21
1560.211837881721
 31
0.0
 12
1396.133529708385
 22
1560.280881432833
 32
0.0
 13
1396.133529708385
 23
1560.280881432833
 33
0.0
  0
SOLID
  5
7F2
330
7EA
100
AcDbEntity
  8
HATCH
  6
CONTINUOUS
 62
     5
100
AcDbTrace
 10
1252.79753278288
 20
1561.185766464305
 30
0.0
 11
1295.486837337979
 21
1560.280881432833
 31
0.0
 12
1396.133529708385
 22
1560.280881432833
 32
0.0
 13
1396.133529708385
 23
1560.280881432833
 33
0.0
  0
SOLID
  5
7F3
330
7EA
100
AcDbEntity
  8
HATCH
  6
CONTINUOUS
 62
     5
100
AcDbTrace
 10
1438.822834263488
 20
1561.185766464307
 30
0.0
 11
1252.79753278288
 21
1561.185766464305
 31
0.0
 12
1396.133529708385
 22
1560.280881432833
 32
0.0
 13
1396.133529708385
 23
1560.280881432833
 33
0.0
  0
SOLID
  5
7F4
330
7EA
100
AcDbEntity
  8
HATCH
  6
CONTINUOUS
 62
     5
100
AcDbTrace
 10
1218.575828974447
 20
1586.721438156393
 30
0.0
 11
1252.79753278288
 21
1561.185766464305
 31
0.0
 12
1438.822834263488
 22
1561.185766464307
 32
0.0
 13
1438.822834263488
 23
1561.185766464307
 33
0.0
  0
SOLID
  5
7F5
330
7EA
100
AcDbEntity
  8
HATCH
  6
CONTINUOUS
 62
     5
100
AcDbTrace
 10
1473.044538071921
 20
1586.7214381564
 30
0.0
 11
1218.575828974447
 21
1586.721438156393
 31
0.0
 12
1438.822834263488
 22
1561.185766464307
 32
0.0
 13
1438.822834263488
 23
1561.185766464307
 33
0.0
  0
SOLID
  5
7F6
330
7EA
100
AcDbEntity
  8
HATCH
  6
CONTINUOUS
 62
     5
100
AcDbTrace
 10
1202.115349961892
 20
1641.358134420014
 30
0.0
 11
1218.575828974447
 21
1586.721438156393
 31
0.0
 12
1473.044538071921
 22
1586.7214381564
 32
0.0
 13
1473.044538071921
 23
1586.7214381564
 33
0.0
  0
SOLID
  5
7F7
330
7EA
100
AcDbEntity
  8
HATCH
  6
CONTINUOUS
 62
     5
100
AcDbTrace
 10
1490.701277483374
 20
1656.299100543579
 30
0.0
 11
1202.115349961892
 21
1641.358134420014
 31
0.0
 12
1473.044538071921
 22
1586.7214381564
 32
0.0
 13
1473.044538071921
 23
1586.7214381564
 33
0.0
  0
SOLID
  5
7F8
330
7EA
100
AcDbEntity
  8
HATCH
  6
CONTINUOUS
 62
     5
100
AcDbTrace
 10
1204.661443194721
 20
1698.363689913978
 30
0.0
 11
1202.115349961892
 21
1641.358134420014
 31
0.0
 12
1490.701277483374
 22
1656.299100543579
 32
0.0
 13
1490.701277483374
 23
1656.299100543579
 33
0.0
  0
SOLID
  5
7F9
330
7EA
100
AcDbEntity
  8
HATCH
  6
CONTINUOUS
 62
     5
100
AcDbTrace
 10
1478.066778445533
 20
1726.961544486392
 30
0.0
 11
1204.661443194721
 21
1698.363689913978
 31
0.0
 12
1490.701277483374
 22
1656.299100543579
 32
0.0
 13
1490.701277483374
 23
1656.299100543579
 33
0.0
  0
SOLID
  5
7FA
330
7EA
100
AcDbEntity
  8
HATCH
  6
CONTINUOUS
 62
     5
100
AcDbTrace
 10
1217.676008620116
 20
1747.296004497127
 30
0.0
 11
1204.661443194721
 21
1698.363689913978
 31
0.0
 12
1478.066778445533
 22
1726.961544486392
 32
0.0
 13
1478.066778445533
 23
1726.961544486392
 33
0.0
  0
SOLID
  5
7FB
330
7EA
100
AcDbEntity
  8
HATCH
  6
CONTINUOUS
 62
     5
100
AcDbTrace
 10
1472.02392793486
 20
1762.153336124757
 30
0.0
 11
1217.676008620116
 21
1747.296004497127
 31
0.0
 12
1478.066778445533
 22
1726.961544486392
 32
0.0
 13
1478.066778445533
 23
1726.961544486392
 33
0.0
  0
SOLID
  5
7FC
330
7EA
100
AcDbEntity
  8
HATCH
  6
CONTINUOUS
 62
     5
100
AcDbTrace
 10
1220.564136621563
 20
1797.847058297452
 30
0.0
 11
1217.676008620116
 21
1747.296004497127
 31
0.0
 12
1472.02392793486
 22
1762.153336124757
 32
0.0
 13
1472.02392793486
 23
1762.153336124757
 33
0.0
  0
SOLID
  5
7FD
330
7EA
100
AcDbEntity
  8
HATCH
  6
CONTINUOUS
 62
     5
100
AcDbTrace
 10
1471.056230424797
 20
1797.847058297454
 30
0.0
 11
1220.564136621563
 21
1797.847058297452
 31
0.0
 12
1472.02392793486
 22
1762.153336124757
 32
0.0
 13
1472.02392793486
 23
1762.153336124757
 33
0.0
  0
SOLID
  5
7FE
330
7EA
100
AcDbEntity
  8
HATCH
  6
CONTINUOUS
 62
     5
100
AcDbTrace
 10
1248.268271898234
 20
1838.246937628881
 30
0.0
 11
1220.564136621563
 21
1797.847058297452
 31
0.0
 12
1471.056230424797
 22
1797.847058297454
 32
0.0
 13
1471.056230424797
 23
1797.847058297454
 33
0.0
  0
SOLID
  5
7FF
330
7EA
100
AcDbEntity
  8
HATCH
  6
CONTINUOUS
 62
     5
100
AcDbTrace
 10
1443.352095148125
 20
1838.246937628881
 30
0.0
 11
1248.268271898234
 21
1838.246937628881
 31
0.0
 12
1471.056230424797
 22
1797.847058297454
 32
0.0
 13
1471.056230424797
 23
1797.847058297454
 33
0.0
  0
SOLID
  5
800
330
7EA
100
AcDbEntity
  8
HATCH
  6
CONTINUOUS
 62
     5
100
AcDbTrace
 10
1424.831938541506
 20
1883.597496177682
 30
0.0
 11
1248.268271898234
 21
1838.246937628881
 31
0.0
 12
1443.352095148125
 22
1838.246937628881
 32
0.0
 13
1443.352095148125
 23
1838.246937628881
 33
0.0
  0
SOLID
  5
801
330
7EA
100
AcDbEntity
  8
HATCH
  6
CONTINUOUS
 62
     5
100
AcDbTrace
 10
1266.788428504854
 20
1883.597496177684
 30
0.0
 11
1248.268271898234
 21
1838.246937628881
 31
0.0
 12
1424.831938541506
 22
1883.597496177682
 32
0.0
 13
1424.831938541506
 23
1883.597496177682
 33
0.0
  0
SOLID
  5
802
330
7EA
100
AcDbEntity
  8
HATCH
  6
CONTINUOUS
 62
     5
100
AcDbTrace
 10
1283.060686209634
 20
1939.970869411465
 30
0.0
 11
1266.788428504854
 21
1883.597496177684
 31
0.0
 12
1424.831938541506
 22
1883.597496177682
 32
0.0
 13
1424.831938541506
 23
1883.597496177682
 33
0.0
  0
SOLID
  5
803
330
7EA
100
AcDbEntity
  8
HATCH
  6
CONTINUOUS
 62
     5
100
AcDbTrace
 10
1408.559680836722
 20
1939.970869411465
 30
0.0
 11
1283.060686209634
 21
1939.970869411465
 31
0.0
 12
1424.831938541506
 22
1883.597496177682
 32
0.0
 13
1424.831938541506
 23
1883.597496177682
 33
0.0
  0
SOLID
  5
804
330
7EA
100
AcDbEntity
  8
HATCH
  6
CONTINUOUS
 62
     5
100
AcDbTrace
 10
1305.61160986178
 20
1961.5358689454
 30
0.0
 11
1283.060686209634
 21
1939.970869411465
 31
0.0
 12
1408.559680836722
 22
1939.970869411465
 32
0.0
 13
1408.559680836722
 23
1939.970869411465
 33
0.0
  0
SOLID
  5
805
330
7EA
100
AcDbEntity
  8
HATCH
  6
CONTINUOUS
 62
     5
100
AcDbTrace
 10
1386.008757184576
 20
1961.535868945403
 30
0.0
 11
1305.61160986178
 21
1961.5358689454
 31
0.0
 12
1408.559680836722
 22
1939.970869411465
 32
0.0
 13
1408.559680836722
 23
1939.970869411465
 33
0.0
  0
SOLID
  5
806
330
7EA
100
AcDbEntity
  8
HATCH
  6
CONTINUOUS
 62
     5
100
AcDbTrace
 10
1335.810183523176
 20
1969.386952391698
 30
0.0
 11
1305.61160986178
 21
1961.5358689454
 31
0.0
 12
1386.008757184576
 22
1961.535868945403
 32
0.0
 13
1386.008757184576
 23
1961.535868945403
 33
0.0
  0
SOLID
  5
807
330
7EA
100
AcDbEntity
  8
HATCH
  6
CONTINUOUS
 62
     5
100
AcDbTrace
 10
1345.810183523179
 20
1969.386952391699
 30
0.0
 11
1335.810183523176
 21
1969.386952391698
 31
0.0
 12
1386.008757184576
 22
1961.535868945403
 32
0.0
 13
1386.008757184576
 23
1961.535868945403
 33
0.0
  0
SOLID
  5
808
330
7EA
100
AcDbEntity
  8
HATCH
  6
CONTINUOUS
 62
     5
100
AcDbTrace
 10
1355.810183523177
 20
1969.386952391699
 30
0.0
 11
1345.810183523179
 21
1969.386952391699
 31
0.0
 12
1386.008757184576
 22
1961.535868945403
 32
0.0
 13
1386.008757184576
 23
1961.535868945403
 33
0.0
  0
ENDBLK
  5
80A
330
7EA
100
AcDbEntity
  8
0
100
AcDbBlockEnd
  0
BLOCK
  5
813
330
80B
100
AcDbEntity
  8
0
100
AcDbBlockBegin
  2
*U15
 70
     1
 10
0.0
 20
0.0
 30
0.0
  3
*U15
  1

  0
SOLID
  5
80C
330
80B
100
AcDbEntity
  8
HATCH
  6
CONTINUOUS
 62
    30
100
AcDbTrace
 10
1414.810183523143
 20
1994.849564783967
 30
0.0
 11
1395.810183523167
 21
1954.849564783968
 31
0.0
 12
1414.81018352314
 22
1954.849564783968
 32
0.0
 13
1414.81018352314
 23
1954.849564783968
 33
0.0
  0
SOLID
  5
80D
330
80B
100
AcDbEntity
  8
HATCH
  6
CONTINUOUS
 62
    30
100
AcDbTrace
 10
1414.810183523143
 20
2014.84956478397
 30
0.0
 11
1395.810183523167
 21
1954.849564783968
 31
0.0
 12
1414.810183523143
 22
1994.849564783967
 32
0.0
 13
1414.810183523143
 23
1994.849564783967
 33
0.0
  0
SOLID
  5
80E
330
80B
100
AcDbEntity
  8
HATCH
  6
CONTINUOUS
 62
    30
100
AcDbTrace
 10
1414.810183523145
 20
2047.849564783967
 30
0.0
 11
1395.810183523167
 21
1954.849564783968
 31
0.0
 12
1414.810183523143
 22
2014.84956478397
 32
0.0
 13
1414.810183523143
 23
2014.84956478397
 33
0.0
  0
SOLID
  5
80F
330
80B
100
AcDbEntity
  8
HATCH
  6
CONTINUOUS
 62
    30
100
AcDbTrace
 10
1414.810183523145
 20
2047.849564783967
 30
0.0
 11
1414.810183523153
 21
2494.849564783967
 31
0.0
 12
1395.810183523167
 22
2494.849564783967
 32
0.0
 13
1395.810183523167
 23
2494.849564783967
 33
0.0
  0
SOLID
  5
810
330
80B
100
AcDbEntity
  8
HATCH
  6
CONTINUOUS
 62
    30
100
AcDbTrace
 10
1395.810183523167
 20
2494.849564783967
 30
0.0
 11
1395.810183523167
 21
1954.849564783968
 31
0.0
 12
1414.810183523145
 22
2047.849564783967
 32
0.0
 13
1414.810183523145
 23
2047.849564783967
 33
0.0
  0
SOLID
  5
811
330
80B
100
AcDbEntity
  8
HATCH
  6
CONTINUOUS
 62
    30
100
AcDbTrace
 10
1295.810183523168
 20
2494.84956478397
 30
0.0
 11
1276.810183523142
 21
1954.849564783974
 31
0.0
 12
1295.810183523167
 22
1954.849564783974
 32
0.0
 13
1295.810183523167
 23
1954.849564783974
 33
0.0
  0
SOLID
  5
812
330
80B
100
AcDbEntity
  8
HATCH
  6
CONTINUOUS
 62
    30
100
AcDbTrace
 10
1276.810183523154
 20
2494.849564783971
 30
0.0
 11
1276.810183523142
 21
1954.849564783974
 31
0.0
 12
1295.810183523168
 22
2494.84956478397
 32
0.0
 13
1295.810183523168
 23
2494.84956478397
 33
0.0
  0
ENDBLK
  5
814
330
80B
100
AcDbEntity
  8
0
100
AcDbBlockEnd
  0
BLOCK
  5
825
330
815
100
AcDbEntity
  8
0
100
AcDbBlockBegin
  2
*U16
 70
     1
 10
0.0
 20
0.0
 30
0.0
  3
*U16
  1

  0
SOLID
  5
816
330
815
100
AcDbEntity
  8
HATCH
  6
CONTINUOUS
 62
     2
100
AcDbTrace
 10
1199.395969960769
 20
1980.435351221599
 30
0.0
 11
1200.810183523143
 21
1979.849564783972
 31
0.0
 12
1261.810183523143
 22
1979.849564783972
 32
0.0
 13
1261.810183523143
 23
1979.849564783972
 33
0.0
  0
SOLID
  5
817
330
815
100
AcDbEntity
  8
HATCH
  6
CONTINUOUS
 62
     2
100
AcDbTrace
 10
1198.810183523141
 20
1981.849564783972
 30
0.0
 11
1199.395969960769
 21
1980.435351221599
 31
0.0
 12
1261.810183523143
 22
1979.849564783972
 32
0.0
 13
1261.810183523143
 23
1979.849564783972
 33
0.0
  0
SOLID
  5
818
330
815
100
AcDbEntity
  8
HATCH
  6
CONTINUOUS
 62
     2
100
AcDbTrace
 10
1198.810183523141
 20
2007.849564783972
 30
0.0
 11
1198.810183523141
 21
1981.849564783972
 31
0.0
 12
1261.810183523143
 22
1979.849564783972
 32
0.0
 13
1261.810183523143
 23
1979.849564783972
 33
0.0
  0
SOLID
  5
819
330
815
100
AcDbEntity
  8
HATCH
  6
CONTINUOUS
 62
     2
100
AcDbTrace
 10
1198.810183523141
 20
2007.849564783972
 30
0.0
 11
1261.810183523143
 21
1979.849564783972
 31
0.0
 12
1268.881251335008
 22
1976.920632595836
 32
0.0
 13
1268.881251335008
 23
1976.920632595836
 33
0.0
  0
SOLID
  5
81A
330
815
100
AcDbEntity
  8
HATCH
  6
CONTINUOUS
 62
     2
100
AcDbTrace
 10
1199.395969960769
 20
2009.263778346344
 30
0.0
 11
1198.810183523141
 21
2007.849564783972
 31
0.0
 12
1268.881251335008
 22
1976.920632595836
 32
0.0
 13
1268.881251335008
 23
1976.920632595836
 33
0.0
  0
SOLID
  5
81B
330
815
100
AcDbEntity
  8
HATCH
  6
CONTINUOUS
 62
     2
100
AcDbTrace
 10
1261.810183523143
 20
2009.849564783972
 30
0.0
 11
1199.395969960769
 21
2009.263778346344
 31
0.0
 12
1268.881251335008
 22
1976.920632595836
 32
0.0
 13
1268.881251335008
 23
1976.920632595836
 33
0.0
  0
SOLID
  5
81C
330
815
100
AcDbEntity
  8
HATCH
  6
CONTINUOUS
 62
     2
100
AcDbTrace
 10
1261.810183523143
 20
2009.849564783972
 30
0.0
 11
1268.881251335008
 21
1976.920632595836
 31
0.0
 12
1271.810183523141
 22
1969.849564783971
 32
0.0
 13
1271.810183523141
 23
1969.849564783971
 33
0.0
  0
SOLID
  5
81D
330
815
100
AcDbEntity
  8
HATCH
  6
CONTINUOUS
 62
     2
100
AcDbTrace
 10
1200.810183523143
 20
2009.849564783972
 30
0.0
 11
1199.395969960769
 21
2009.263778346344
 31
0.0
 12
1261.810183523143
 22
2009.849564783972
 32
0.0
 13
1261.810183523143
 23
2009.849564783972
 33
0.0
  0
SOLID
  5
81E
330
815
100
AcDbEntity
  8
HATCH
  6
CONTINUOUS
 62
     2
100
AcDbTrace
 10
1268.881251335009
 20
2012.778496972106
 30
0.0
 11
1261.810183523143
 21
2009.849564783972
 31
0.0
 12
1271.810183523141
 22
1969.849564783971
 32
0.0
 13
1271.810183523141
 23
1969.849564783971
 33
0.0
  0
SOLID
  5
81F
330
815
100
AcDbEntity
  8
HATCH
  6
CONTINUOUS
 62
     2
100
AcDbTrace
 10
1271.810183523143
 20
2019.84956478397
 30
0.0
 11
1268.881251335009
 21
2012.778496972106
 31
0.0
 12
1271.810183523141
 22
1969.849564783971
 32
0.0
 13
1271.810183523141
 23
1969.849564783971
 33
0.0
  0
SOLID
  5
820
330
815
100
AcDbEntity
  8
HATCH
  6
CONTINUOUS
 62
     2
100
AcDbTrace
 10
1271.810183523141
 20
1969.849564783971
 30
0.0
 11
1271.810183523141
 21
1968.349564783969
 31
0.0
 12
1276.810183523142
 22
1968.349564783969
 32
0.0
 13
1276.810183523142
 23
1968.349564783969
 33
0.0
  0
SOLID
  5
821
330
815
100
AcDbEntity
  8
HATCH
  6
CONTINUOUS
 62
     2
100
AcDbTrace
 10
1276.810183523142
 20
1994.849564783971
 30
0.0
 11
1271.810183523141
 21
1969.849564783971
 31
0.0
 12
1276.810183523142
 22
1968.349564783969
 32
0.0
 13
1276.810183523142
 23
1968.349564783969
 33
0.0
  0
SOLID
  5
822
330
815
100
AcDbEntity
  8
HATCH
  6
CONTINUOUS
 62
     2
100
AcDbTrace
 10
1271.810183523143
 20
2019.84956478397
 30
0.0
 11
1271.810183523141
 21
1969.849564783971
 31
0.0
 12
1276.810183523142
 22
1994.849564783971
 32
0.0
 13
1276.810183523142
 23
1994.849564783971
 33
0.0
  0
SOLID
  5
823
330
815
100
AcDbEntity
  8
HATCH
  6
CONTINUOUS
 62
     2
100
AcDbTrace
 10
1276.810183523142
 20
2021.34956478397
 30
0.0
 11
1271.810183523143
 21
2019.84956478397
 31
0.0
 12
1276.810183523142
 22
1994.849564783971
 32
0.0
 13
1276.810183523142
 23
1994.849564783971
 33
0.0
  0
SOLID
  5
824
330
815
100
AcDbEntity
  8
HATCH
  6
CONTINUOUS
 62
     2
100
AcDbTrace
 10
1271.810183523143
 20
2021.34956478397
 30
0.0
 11
1271.810183523143
 21
2019.84956478397
 31
0.0
 12
1276.810183523142
 22
2021.34956478397
 32
0.0
 13
1276.810183523142
 23
2021.34956478397
 33
0.0
  0
ENDBLK
  5
826
330
815
100
AcDbEntity
  8
0
100
AcDbBlockEnd
  0
BLOCK
  5
830
330
827
100
AcDbEntity
  8
0
100
AcDbBlockBegin
  2
*U17
 70
     1
 10
0.0
 20
0.0
 30
0.0
  3
*U17
  1

  0
SOLID
  5
828
330
827
100
AcDbEntity
  8
HATCH
  6
CONTINUOUS
 62
   251
100
AcDbTrace
 10
1355.810183523177
 20
1969.386952391699
 30
0.0
 11
1335.810183523176
 21
1969.386952391698
 31
0.0
 12
1345.810183523179
 22
1969.386952391699
 32
0.0
 13
1345.810183523179
 23
1969.386952391699
 33
0.0
  0
SOLID
  5
829
330
827
100
AcDbEntity
  8
HATCH
  6
CONTINUOUS
 62
   251
100
AcDbTrace
 10
1345.810183523168
 20
2786.649482460448
 30
0.0
 11
1355.810183523177
 21
1969.386952391699
 31
0.0
 12
1377.105589607062
 22
1965.615244749812
 32
0.0
 13
1377.105589607062
 23
1965.615244749812
 33
0.0
  0
SOLID
  5
82A
330
827
100
AcDbEntity
  8
HATCH
  6
CONTINUOUS
 62
   251
100
AcDbTrace
 10
1345.810183523168
 20
2786.649482460448
 30
0.0
 11
1377.105589607062
 21
1965.615244749812
 31
0.0
 12
1395.810183523168
 22
1954.758990089606
 32
0.0
 13
1395.810183523168
 23
1954.758990089606
 33
0.0
  0
SOLID
  5
82B
330
827
100
AcDbEntity
  8
HATCH
  6
CONTINUOUS
 62
   251
100
AcDbTrace
 10
1345.810183523168
 20
2786.649482460448
 30
0.0
 11
1335.810183523176
 21
1969.386952391698
 31
0.0
 12
1355.810183523177
 22
1969.386952391699
 32
0.0
 13
1355.810183523177
 23
1969.386952391699
 33
0.0
  0
SOLID
  5
82C
330
827
100
AcDbEntity
  8
HATCH
  6
CONTINUOUS
 62
   251
100
AcDbTrace
 10
1345.810183523168
 20
2786.649482460448
 30
0.0
 11
1314.514777439277
 21
1965.615244749805
 31
0.0
 12
1335.810183523176
 22
1969.386952391698
 32
0.0
 13
1335.810183523176
 23
1969.386952391698
 33
0.0
  0
SOLID
  5
82D
330
827
100
AcDbEntity
  8
HATCH
  6
CONTINUOUS
 62
   251
100
AcDbTrace
 10
1345.810183523168
 20
2786.649482460448
 30
0.0
 11
1295.810183523168
 21
1954.758990089586
 31
0.0
 12
1314.514777439277
 22
1965.615244749805
 32
0.0
 13
1314.514777439277
 23
1965.615244749805
 33
0.0
  0
SOLID
  5
82E
330
827
100
AcDbEntity
  8
HATCH
  6
CONTINUOUS
 62
   251
100
AcDbTrace
 10
1395.810183523168
 20
2797.085090086552
 30
0.0
 11
1345.810183523168
 21
2786.649482460448
 31
0.0
 12
1395.810183523168
 22
1954.758990089606
 32
0.0
 13
1395.810183523168
 23
1954.758990089606
 33
0.0
  0
SOLID
  5
82F
330
827
100
AcDbEntity
  8
HATCH
  6
CONTINUOUS
 62
   251
100
AcDbTrace
 10
1295.810183523168
 20
2797.085090086552
 30
0.0
 11
1295.810183523168
 21
1954.758990089586
 31
0.0
 12
1345.810183523168
 22
2786.649482460448
 32
0.0
 13
1345.810183523168
 23
2786.649482460448
 33
0.0
  0
ENDBLK
  5
831
330
827
100
AcDbEntity
  8
0
100
AcDbBlockEnd
  0
BLOCK
  5
83B
330
832
100
AcDbEntity
  8
0
100
AcDbBlockBegin
  2
*U18
 70
     1
 10
0.0
 20
0.0
 30
0.0
  3
*U18
  1

  0
SOLID
  5
833
330
832
100
AcDbEntity
  8
HATCH
  6
CONTINUOUS
 62
   251
100
AcDbTrace
 10
1345.810183523169
 20
3446.649482460448
 30
0.0
 11
1355.810183523167
 21
4263.912012529194
 31
0.0
 12
1345.810183523168
 22
4263.912012529194
 32
0.0
 13
1345.810183523168
 23
4263.912012529194
 33
0.0
  0
SOLID
  5
834
330
832
100
AcDbEntity
  8
HATCH
  6
CONTINUOUS
 62
   251
100
AcDbTrace
 10
1355.810183523167
 20
4263.912012529194
 30
0.0
 11
1345.810183523169
 21
3446.649482460448
 31
0.0
 12
1395.810183523169
 22
3436.213874834344
 32
0.0
 13
1395.810183523169
 23
3436.213874834344
 33
0.0
  0
SOLID
  5
835
330
832
100
AcDbEntity
  8
HATCH
  6
CONTINUOUS
 62
   251
100
AcDbTrace
 10
1345.810183523168
 20
4263.912012529194
 30
0.0
 11
1295.810183523169
 21
3436.213874834344
 31
0.0
 12
1345.810183523169
 22
3446.649482460448
 32
0.0
 13
1345.810183523169
 23
3446.649482460448
 33
0.0
  0
SOLID
  5
836
330
832
100
AcDbEntity
  8
HATCH
  6
CONTINUOUS
 62
   251
100
AcDbTrace
 10
1335.810183523161
 20
4263.912012529196
 30
0.0
 11
1295.810183523169
 21
3436.213874834344
 31
0.0
 12
1345.810183523168
 22
4263.912012529194
 32
0.0
 13
1345.810183523168
 23
4263.912012529194
 33
0.0
  0
SOLID
  5
837
330
832
100
AcDbEntity
  8
HATCH
  6
CONTINUOUS
 62
   251
100
AcDbTrace
 10
1377.105589607062
 20
4267.683720171086
 30
0.0
 11
1355.810183523167
 21
4263.912012529194
 31
0.0
 12
1395.810183523169
 22
3436.213874834344
 32
0.0
 13
1395.810183523169
 23
3436.213874834344
 33
0.0
  0
SOLID
  5
838
330
832
100
AcDbEntity
  8
HATCH
  6
CONTINUOUS
 62
   251
100
AcDbTrace
 10
1314.514777439272
 20
4267.683720171087
 30
0.0
 11
1295.810183523169
 21
3436.213874834344
 31
0.0
 12
1335.810183523161
 22
4263.912012529196
 32
0.0
 13
1335.810183523161
 23
4263.912012529196
 33
0.0
  0
SOLID
  5
839
330
832
100
AcDbEntity
  8
HATCH
  6
CONTINUOUS
 62
   251
100
AcDbTrace
 10
1295.810183523169
 20
4278.539974831298
 30
0.0
 11
1295.810183523169
 21
3436.213874834344
 31
0.0
 12
1314.514777439272
 22
4267.683720171087
 32
0.0
 13
1314.514777439272
 23
4267.683720171087
 33
0.0
  0
SOLID
  5
83A
330
832
100
AcDbEntity
  8
HATCH
  6
CONTINUOUS
 62
   251
100
AcDbTrace
 10
1395.810183523169
 20
4278.5399748313
 30
0.0
 11
1377.105589607062
 21
4267.683720171086
 31
0.0
 12
1395.810183523169
 22
3436.213874834344
 32
0.0
 13
1395.810183523169
 23
3436.213874834344
 33
0.0
  0
ENDBLK
  5
83C
330
832
100
AcDbEntity
  8
0
100
AcDbBlockEnd
  0
BLOCK
  5
845
330
83D
100
AcDbEntity
  8
0
100
AcDbBlockBegin
  2
*U19
 70
     1
 10
0.0
 20
0.0
 30
0.0
  3
*U19
  1

  0
SOLID
  5
83E
330
83D
100
AcDbEntity
  8
HATCH
  6
CONTINUOUS
 62
    30
100
AcDbTrace
 10
1414.810183523168
 20
3768.44940013693
 30
0.0
 11
1395.810183523167
 21
3738.449400136928
 31
0.0
 12
1414.810183523168
 22
3738.449400136928
 32
0.0
 13
1414.810183523168
 23
3738.449400136928
 33
0.0
  0
SOLID
  5
83F
330
83D
100
AcDbEntity
  8
HATCH
  6
CONTINUOUS
 62
    30
100
AcDbTrace
 10
1276.810183523165
 20
4185.44940013693
 30
0.0
 11
1276.810183523165
 21
3738.449400136928
 31
0.0
 12
1295.810183523167
 22
3738.449400136928
 32
0.0
 13
1295.810183523167
 23
3738.449400136928
 33
0.0
  0
SOLID
  5
840
330
83D
100
AcDbEntity
  8
HATCH
  6
CONTINUOUS
 62
    30
100
AcDbTrace
 10
1276.810183523165
 20
4238.449400136931
 30
0.0
 11
1276.810183523165
 21
4185.44940013693
 31
0.0
 12
1295.810183523167
 22
3738.449400136928
 32
0.0
 13
1295.810183523167
 23
3738.449400136928
 33
0.0
  0
SOLID
  5
841
330
83D
100
AcDbEntity
  8
HATCH
  6
CONTINUOUS
 62
    30
100
AcDbTrace
 10
1414.810183523168
 20
3768.44940013693
 30
0.0
 11
1414.810183523168
 21
4278.44940013693
 31
0.0
 12
1395.810183523167
 22
4278.44940013693
 32
0.0
 13
1395.810183523167
 23
4278.44940013693
 33
0.0
  0
SOLID
  5
842
330
83D
100
AcDbEntity
  8
HATCH
  6
CONTINUOUS
 62
    30
100
AcDbTrace
 10
1395.810183523167
 20
4278.44940013693
 30
0.0
 11
1395.810183523167
 21
3738.449400136928
 31
0.0
 12
1414.810183523168
 22
3768.44940013693
 32
0.0
 13
1414.810183523168
 23
3768.44940013693
 33
0.0
  0
SOLID
  5
843
330
83D
100
AcDbEntity
  8
HATCH
  6
CONTINUOUS
 62
    30
100
AcDbTrace
 10
1276.810183523165
 20
4238.449400136931
 30
0.0
 11
1295.810183523168
 21
4278.44940013693
 31
0.0
 12
1276.810183523165
 22
4278.44940013693
 32
0.0
 13
1276.810183523165
 23
4278.44940013693
 33
0.0
  0
SOLID
  5
844
330
83D
100
AcDbEntity
  8
HATCH
  6
CONTINUOUS
 62
    30
100
AcDbTrace
 10
1295.810183523168
 20
4278.44940013693
 30
0.0
 11
1276.810183523165
 21
4238.449400136931
 31
0.0
 12
1295.810183523167
 22
3738.449400136928
 32
0.0
 13
1295.810183523167
 23
3738.449400136928
 33
0.0
  0
ENDBLK
  5
846
330
83D
100
AcDbEntity
  8
0
100
AcDbBlockEnd
  0
BLOCK
  5
866
330
847
100
AcDbEntity
  8
0
100
AcDbBlockBegin
  2
*U20
 70
     1
 10
0.0
 20
0.0
 30
0.0
  3
*U20
  1

  0
SOLID
  5
848
330
847
100
AcDbEntity
  8
HATCH
  6
CONTINUOUS
 62
     2
100
AcDbTrace
 10
1199.395969960793
 20
4224.035186574558
 30
0.0
 11
1200.810183523167
 21
4223.449400136931
 31
0.0
 12
1261.810183523166
 22
4223.449400136931
 32
0.0
 13
1261.810183523166
 23
4223.449400136931
 33
0.0
  0
SOLID
  5
849
330
847
100
AcDbEntity
  8
HATCH
  6
CONTINUOUS
 62
     2
100
AcDbTrace
 10
1198.810183523167
 20
4225.449400136932
 30
0.0
 11
1199.395969960793
 21
4224.035186574558
 31
0.0
 12
1261.810183523166
 22
4223.449400136931
 32
0.0
 13
1261.810183523166
 23
4223.449400136931
 33
0.0
  0
SOLID
  5
84A
330
847
100
AcDbEntity
  8
HATCH
  6
CONTINUOUS
 62
     2
100
AcDbTrace
 10
1198.810183523167
 20
4251.44940013693
 30
0.0
 11
1198.810183523167
 21
4225.449400136932
 31
0.0
 12
1261.810183523166
 22
4223.449400136931
 32
0.0
 13
1261.810183523166
 23
4223.449400136931
 33
0.0
  0
SOLID
  5
84B
330
847
100
AcDbEntity
  8
HATCH
  6
CONTINUOUS
 62
     2
100
AcDbTrace
 10
1198.810183523167
 20
4251.44940013693
 30
0.0
 11
1261.810183523166
 21
4223.449400136931
 31
0.0
 12
1268.881251335032
 22
4220.520467948796
 32
0.0
 13
1268.881251335032
 23
4220.520467948796
 33
0.0
  0
SOLID
  5
84C
330
847
100
AcDbEntity
  8
HATCH
  6
CONTINUOUS
 62
     2
100
AcDbTrace
 10
1199.395969960794
 20
4252.863613699303
 30
0.0
 11
1198.810183523167
 21
4251.44940013693
 31
0.0
 12
1268.881251335032
 22
4220.520467948796
 32
0.0
 13
1268.881251335032
 23
4220.520467948796
 33
0.0
  0
SOLID
  5
84D
330
847
100
AcDbEntity
  8
HATCH
  6
CONTINUOUS
 62
     2
100
AcDbTrace
 10
1200.810183523167
 20
4253.44940013693
 30
0.0
 11
1199.395969960794
 21
4252.863613699303
 31
0.0
 12
1268.881251335032
 22
4220.520467948796
 32
0.0
 13
1268.881251335032
 23
4220.520467948796
 33
0.0
  0
SOLID
  5
84E
330
847
100
AcDbEntity
  8
HATCH
  6
CONTINUOUS
 62
     2
100
AcDbTrace
 10
1268.881251335032
 20
4220.520467948796
 30
0.0
 11
1261.810183523166
 21
4253.44940013693
 31
0.0
 12
1200.810183523167
 22
4253.44940013693
 32
0.0
 13
1200.810183523167
 23
4253.44940013693
 33
0.0
  0
SOLID
  5
84F
330
847
100
AcDbEntity
  8
HATCH
  6
CONTINUOUS
 62
     2
100
AcDbTrace
 10
1261.810183523166
 20
4253.44940013693
 30
0.0
 11
1268.881251335032
 21
4220.520467948796
 31
0.0
 12
1271.810183523166
 22
4213.44940013693
 32
0.0
 13
1271.810183523166
 23
4213.44940013693
 33
0.0
  0
SOLID
  5
850
330
847
100
AcDbEntity
  8
HATCH
  6
CONTINUOUS
 62
     2
100
AcDbTrace
 10
1268.881251335032
 20
4256.378332325065
 30
0.0
 11
1261.810183523166
 21
4253.44940013693
 31
0.0
 12
1271.810183523166
 22
4213.44940013693
 32
0.0
 13
1271.810183523166
 23
4213.44940013693
 33
0.0
  0
SOLID
  5
851
330
847
100
AcDbEntity
  8
HATCH
  6
CONTINUOUS
 62
     2
100
AcDbTrace
 10
1271.810183523166
 20
4263.449400136931
 30
0.0
 11
1268.881251335032
 21
4256.378332325065
 31
0.0
 12
1271.810183523166
 22
4213.44940013693
 32
0.0
 13
1271.810183523166
 23
4213.44940013693
 33
0.0
  0
SOLID
  5
852
330
847
100
AcDbEntity
  8
HATCH
  6
CONTINUOUS
 62
     2
100
AcDbTrace
 10
1419.810183523168
 20
4213.449400136931
 30
0.0
 11
1414.810183523168
 21
4211.949400136931
 31
0.0
 12
1419.810183523168
 22
4211.949400136931
 32
0.0
 13
1419.810183523168
 23
4211.949400136931
 33
0.0
  0
SOLID
  5
853
330
847
100
AcDbEntity
  8
HATCH
  6
CONTINUOUS
 62
     2
100
AcDbTrace
 10
1271.810183523166
 20
4213.449400136931
 30
0.0
 11
1271.810183523166
 21
4211.949400136931
 31
0.0
 12
1276.810183523165
 22
4211.949400136931
 32
0.0
 13
1276.810183523165
 23
4211.949400136931
 33
0.0
  0
SOLID
  5
854
330
847
100
AcDbEntity
  8
HATCH
  6
CONTINUOUS
 62
     2
100
AcDbTrace
 10
1414.810183523168
 20
4218.44940013693
 30
0.0
 11
1414.810183523168
 21
4211.949400136931
 31
0.0
 12
1419.810183523168
 22
4213.449400136931
 32
0.0
 13
1419.810183523168
 23
4213.449400136931
 33
0.0
  0
SOLID
  5
855
330
847
100
AcDbEntity
  8
HATCH
  6
CONTINUOUS
 62
     2
100
AcDbTrace
 10
1276.810183523165
 20
4238.449400136931
 30
0.0
 11
1271.810183523166
 21
4213.449400136931
 31
0.0
 12
1276.810183523165
 22
4211.949400136931
 32
0.0
 13
1276.810183523165
 23
4211.949400136931
 33
0.0
  0
SOLID
  5
856
330
847
100
AcDbEntity
  8
HATCH
  6
CONTINUOUS
 62
     2
100
AcDbTrace
 10
1419.810183523168
 20
4263.449400136931
 30
0.0
 11
1414.810183523168
 21
4218.44940013693
 31
0.0
 12
1419.810183523168
 22
4213.449400136931
 32
0.0
 13
1419.810183523168
 23
4213.449400136931
 33
0.0
  0
SOLID
  5
857
330
847
100
AcDbEntity
  8
HATCH
  6
CONTINUOUS
 62
     2
100
AcDbTrace
 10
1271.810183523166
 20
4263.449400136931
 30
0.0
 11
1271.810183523166
 21
4213.449400136931
 31
0.0
 12
1276.810183523165
 22
4238.449400136931
 32
0.0
 13
1276.810183523165
 23
4238.449400136931
 33
0.0
  0
SOLID
  5
858
330
847
100
AcDbEntity
  8
HATCH
  6
CONTINUOUS
 62
     2
100
AcDbTrace
 10
1271.810183523166
 20
4263.449400136931
 30
0.0
 11
1276.810183523165
 21
4264.94940013693
 31
0.0
 12
1271.810183523166
 22
4264.94940013693
 32
0.0
 13
1271.810183523166
 23
4264.94940013693
 33
0.0
  0
SOLID
  5
859
330
847
100
AcDbEntity
  8
HATCH
  6
CONTINUOUS
 62
     2
100
AcDbTrace
 10
1276.810183523165
 20
4264.94940013693
 30
0.0
 11
1271.810183523166
 21
4263.449400136931
 31
0.0
 12
1276.810183523165
 22
4238.449400136931
 32
0.0
 13
1276.810183523165
 23
4238.449400136931
 33
0.0
  0
SOLID
  5
85A
330
847
100
AcDbEntity
  8
HATCH
  6
CONTINUOUS
 62
     2
100
AcDbTrace
 10
1419.810183523168
 20
4263.449400136931
 30
0.0
 11
1419.810183523168
 21
4264.949400136931
 31
0.0
 12
1414.810183523168
 22
4264.949400136931
 32
0.0
 13
1414.810183523168
 23
4264.949400136931
 33
0.0
  0
SOLID
  5
85B
330
847
100
AcDbEntity
  8
HATCH
  6
CONTINUOUS
 62
     2
100
AcDbTrace
 10
1414.810183523168
 20
4264.949400136931
 30
0.0
 11
1414.810183523168
 21
4218.44940013693
 31
0.0
 12
1419.810183523168
 22
4263.449400136931
 32
0.0
 13
1419.810183523168
 23
4263.449400136931
 33
0.0
  0
SOLID
  5
85C
330
847
100
AcDbEntity
  8
HATCH
  6
CONTINUOUS
 62
     2
100
AcDbTrace
 10
1492.22439708554
 20
4224.035186574557
 30
0.0
 11
1429.810183523168
 21
4223.449400136931
 31
0.0
 12
1490.810183523167
 22
4223.449400136928
 32
0.0
 13
1490.810183523167
 23
4223.449400136928
 33
0.0
  0
SOLID
  5
85D
330
847
100
AcDbEntity
  8
HATCH
  6
CONTINUOUS
 62
     2
100
AcDbTrace
 10
1492.810183523167
 20
4225.44940013693
 30
0.0
 11
1429.810183523168
 21
4223.449400136931
 31
0.0
 12
1492.22439708554
 22
4224.035186574557
 32
0.0
 13
1492.22439708554
 23
4224.035186574557
 33
0.0
  0
SOLID
  5
85E
330
847
100
AcDbEntity
  8
HATCH
  6
CONTINUOUS
 62
     2
100
AcDbTrace
 10
1492.810183523167
 20
4251.449400136931
 30
0.0
 11
1429.810183523168
 21
4223.449400136931
 31
0.0
 12
1492.810183523167
 22
4225.44940013693
 32
0.0
 13
1492.810183523167
 23
4225.44940013693
 33
0.0
  0
SOLID
  5
85F
330
847
100
AcDbEntity
  8
HATCH
  6
CONTINUOUS
 62
     2
100
AcDbTrace
 10
1492.810183523167
 20
4251.449400136931
 30
0.0
 11
1422.7391157113
 21
4220.520467948796
 31
0.0
 12
1429.810183523168
 22
4223.449400136931
 32
0.0
 13
1429.810183523168
 23
4223.449400136931
 33
0.0
  0
SOLID
  5
860
330
847
100
AcDbEntity
  8
HATCH
  6
CONTINUOUS
 62
     2
100
AcDbTrace
 10
1492.224397085538
 20
4252.863613699303
 30
0.0
 11
1422.7391157113
 21
4220.520467948796
 31
0.0
 12
1492.810183523167
 22
4251.449400136931
 32
0.0
 13
1492.810183523167
 23
4251.449400136931
 33
0.0
  0
SOLID
  5
861
330
847
100
AcDbEntity
  8
HATCH
  6
CONTINUOUS
 62
     2
100
AcDbTrace
 10
1490.810183523167
 20
4253.449400136928
 30
0.0
 11
1422.7391157113
 21
4220.520467948796
 31
0.0
 12
1492.224397085538
 22
4252.863613699303
 32
0.0
 13
1492.224397085538
 23
4252.863613699303
 33
0.0
  0
SOLID
  5
862
330
847
100
AcDbEntity
  8
HATCH
  6
CONTINUOUS
 62
     2
100
AcDbTrace
 10
1429.810183523168
 20
4253.44940013693
 30
0.0
 11
1422.7391157113
 21
4220.520467948796
 31
0.0
 12
1490.810183523167
 22
4253.449400136928
 32
0.0
 13
1490.810183523167
 23
4253.449400136928
 33
0.0
  0
SOLID
  5
863
330
847
100
AcDbEntity
  8
HATCH
  6
CONTINUOUS
 62
     2
100
AcDbTrace
 10
1429.810183523168
 20
4253.44940013693
 30
0.0
 11
1419.810183523168
 21
4213.449400136931
 31
0.0
 12
1422.7391157113
 22
4220.520467948796
 32
0.0
 13
1422.7391157113
 23
4220.520467948796
 33
0.0
  0
SOLID
  5
864
330
847
100
AcDbEntity
  8
HATCH
  6
CONTINUOUS
 62
     2
100
AcDbTrace
 10
1422.7391157113
 20
4256.378332325065
 30
0.0
 11
1419.810183523168
 21
4213.449400136931
 31
0.0
 12
1429.810183523168
 22
4253.44940013693
 32
0.0
 13
1429.810183523168
 23
4253.44940013693
 33
0.0
  0
SOLID
  5
865
330
847
100
AcDbEntity
  8
HATCH
  6
CONTINUOUS
 62
     2
100
AcDbTrace
 10
1419.810183523168
 20
4263.44940013693
 30
0.0
 11
1419.810183523168
 21
4213.449400136931
 31
0.0
 12
1422.7391157113
 22
4256.378332325065
 32
0.0
 13
1422.7391157113
 23
4256.378332325065
 33
0.0
  0
ENDBLK
  5
867
330
847
100
AcDbEntity
  8
0
100
AcDbBlockEnd
  0
BLOCK
  5
887
330
868
100
AcDbEntity
  8
0
100
AcDbBlockBegin
  2
*U21
 70
     1
 10
0.0
 20
0.0
 30
0.0
  3
*U21
  1

  0
SOLID
  5
869
330
868
100
AcDbEntity
  8
HATCH
  6
CONTINUOUS
 62
     5
100
AcDbTrace
 10
1335.810183523161
 20
4263.912012529196
 30
0.0
 11
1345.810183523167
 21
4263.912012529194
 31
0.0
 12
1355.810183523167
 22
4263.912012529194
 32
0.0
 13
1355.810183523167
 23
4263.912012529194
 33
0.0
  0
SOLID
  5
86A
330
868
100
AcDbEntity
  8
HATCH
  6
CONTINUOUS
 62
     5
100
AcDbTrace
 10
1386.008757184566
 20
4271.763095975493
 30
0.0
 11
1335.810183523161
 21
4263.912012529196
 31
0.0
 12
1355.810183523167
 22
4263.912012529194
 32
0.0
 13
1355.810183523167
 23
4263.912012529194
 33
0.0
  0
SOLID
  5
86B
330
868
100
AcDbEntity
  8
HATCH
  6
CONTINUOUS
 62
     5
100
AcDbTrace
 10
1305.611609861766
 20
4271.763095975495
 30
0.0
 11
1335.810183523161
 21
4263.912012529196
 31
0.0
 12
1386.008757184566
 22
4271.763095975493
 32
0.0
 13
1386.008757184566
 23
4271.763095975493
 33
0.0
  0
SOLID
  5
86C
330
868
100
AcDbEntity
  8
HATCH
  6
CONTINUOUS
 62
     5
100
AcDbTrace
 10
1283.060686209624
 20
4293.328095509433
 30
0.0
 11
1305.611609861766
 21
4271.763095975495
 31
0.0
 12
1386.008757184566
 22
4271.763095975493
 32
0.0
 13
1386.008757184566
 23
4271.763095975493
 33
0.0
  0
SOLID
  5
86D
330
868
100
AcDbEntity
  8
HATCH
  6
CONTINUOUS
 62
     5
100
AcDbTrace
 10
1408.559680836711
 20
4293.328095509433
 30
0.0
 11
1283.060686209624
 21
4293.328095509433
 31
0.0
 12
1386.008757184566
 22
4271.763095975493
 32
0.0
 13
1386.008757184566
 23
4271.763095975493
 33
0.0
  0
SOLID
  5
86E
330
868
100
AcDbEntity
  8
HATCH
  6
CONTINUOUS
 62
     5
100
AcDbTrace
 10
1424.831938541493
 20
4349.701468743211
 30
0.0
 11
1283.060686209624
 21
4293.328095509433
 31
0.0
 12
1408.559680836711
 22
4293.328095509433
 32
0.0
 13
1408.559680836711
 23
4293.328095509433
 33
0.0
  0
SOLID
  5
86F
330
868
100
AcDbEntity
  8
HATCH
  6
CONTINUOUS
 62
     5
100
AcDbTrace
 10
1266.788428504841
 20
4349.701468743211
 30
0.0
 11
1283.060686209624
 21
4293.328095509433
 31
0.0
 12
1424.831938541493
 22
4349.701468743211
 32
0.0
 13
1424.831938541493
 23
4349.701468743211
 33
0.0
  0
SOLID
  5
870
330
868
100
AcDbEntity
  8
HATCH
  6
CONTINUOUS
 62
     5
100
AcDbTrace
 10
1248.268271898219
 20
4395.052027292015
 30
0.0
 11
1266.788428504841
 21
4349.701468743211
 31
0.0
 12
1424.831938541493
 22
4349.701468743211
 32
0.0
 13
1424.831938541493
 23
4349.701468743211
 33
0.0
  0
SOLID
  5
871
330
868
100
AcDbEntity
  8
HATCH
  6
CONTINUOUS
 62
     5
100
AcDbTrace
 10
1443.352095148113
 20
4395.052027292016
 30
0.0
 11
1248.268271898219
 21
4395.052027292015
 31
0.0
 12
1424.831938541493
 22
4349.701468743211
 32
0.0
 13
1424.831938541493
 23
4349.701468743211
 33
0.0
  0
SOLID
  5
872
330
868
100
AcDbEntity
  8
HATCH
  6
CONTINUOUS
 62
     5
100
AcDbTrace
 10
1220.56413662155
 20
4435.451906623441
 30
0.0
 11
1248.268271898219
 21
4395.052027292015
 31
0.0
 12
1443.352095148113
 22
4395.052027292016
 32
0.0
 13
1443.352095148113
 23
4395.052027292016
 33
0.0
  0
SOLID
  5
873
330
868
100
AcDbEntity
  8
HATCH
  6
CONTINUOUS
 62
     5
100
AcDbTrace
 10
1471.056230424784
 20
4435.451906623444
 30
0.0
 11
1220.56413662155
 21
4435.451906623441
 31
0.0
 12
1443.352095148113
 22
4395.052027292016
 32
0.0
 13
1443.352095148113
 23
4395.052027292016
 33
0.0
  0
SOLID
  5
874
330
868
100
AcDbEntity
  8
HATCH
  6
CONTINUOUS
 62
     5
100
AcDbTrace
 10
1472.023927934847
 20
4471.145628796139
 30
0.0
 11
1220.56413662155
 21
4435.451906623441
 31
0.0
 12
1471.056230424784
 22
4435.451906623444
 32
0.0
 13
1471.056230424784
 23
4435.451906623444
 33
0.0
  0
SOLID
  5
875
330
868
100
AcDbEntity
  8
HATCH
  6
CONTINUOUS
 62
     5
100
AcDbTrace
 10
1217.676008620103
 20
4486.002960423768
 30
0.0
 11
1220.56413662155
 21
4435.451906623441
 31
0.0
 12
1472.023927934847
 22
4471.145628796139
 32
0.0
 13
1472.023927934847
 23
4471.145628796139
 33
0.0
  0
SOLID
  5
876
330
868
100
AcDbEntity
  8
HATCH
  6
CONTINUOUS
 62
     5
100
AcDbTrace
 10
1478.06677844552
 20
4506.337420434504
 30
0.0
 11
1217.676008620103
 21
4486.002960423768
 31
0.0
 12
1472.023927934847
 22
4471.145628796139
 32
0.0
 13
1472.023927934847
 23
4471.145628796139
 33
0.0
  0
SOLID
  5
877
330
868
100
AcDbEntity
  8
HATCH
  6
CONTINUOUS
 62
     5
100
AcDbTrace
 10
1204.661443194706
 20
4534.935275006915
 30
0.0
 11
1217.676008620103
 21
4486.002960423768
 31
0.0
 12
1478.06677844552
 22
4506.337420434504
 32
0.0
 13
1478.06677844552
 23
4506.337420434504
 33
0.0
  0
SOLID
  5
878
330
868
100
AcDbEntity
  8
HATCH
  6
CONTINUOUS
 62
     5
100
AcDbTrace
 10
1490.70127748336
 20
4576.999864377317
 30
0.0
 11
1204.661443194706
 21
4534.935275006915
 31
0.0
 12
1478.06677844552
 22
4506.337420434504
 32
0.0
 13
1478.06677844552
 23
4506.337420434504
 33
0.0
  0
SOLID
  5
879
330
868
100
AcDbEntity
  8
HATCH
  6
CONTINUOUS
 62
     5
100
AcDbTrace
 10
1202.115349961877
 20
4591.940830500879
 30
0.0
 11
1204.661443194706
 21
4534.935275006915
 31
0.0
 12
1490.70127748336
 22
4576.999864377317
 32
0.0
 13
1490.70127748336
 23
4576.999864377317
 33
0.0
  0
SOLID
  5
87A
330
868
100
AcDbEntity
  8
HATCH
  6
CONTINUOUS
 62
     5
100
AcDbTrace
 10
1473.044538071904
 20
4646.577526764498
 30
0.0
 11
1202.115349961877
 21
4591.940830500879
 31
0.0
 12
1490.70127748336
 22
4576.999864377317
 32
0.0
 13
1490.70127748336
 23
4576.999864377317
 33
0.0
  0
SOLID
  5
87B
330
868
100
AcDbEntity
  8
HATCH
  6
CONTINUOUS
 62
     5
100
AcDbTrace
 10
1218.575828974431
 20
4646.577526764498
 30
0.0
 11
1202.115349961877
 21
4591.940830500879
 31
0.0
 12
1473.044538071904
 22
4646.577526764498
 32
0.0
 13
1473.044538071904
 23
4646.577526764498
 33
0.0
  0
SOLID
  5
87C
330
868
100
AcDbEntity
  8
HATCH
  6
CONTINUOUS
 62
     5
100
AcDbTrace
 10
1438.822834263471
 20
4672.113198456589
 30
0.0
 11
1218.575828974431
 21
4646.577526764498
 31
0.0
 12
1473.044538071904
 22
4646.577526764498
 32
0.0
 13
1473.044538071904
 23
4646.577526764498
 33
0.0
  0
SOLID
  5
87D
330
868
100
AcDbEntity
  8
HATCH
  6
CONTINUOUS
 62
     5
100
AcDbTrace
 10
1252.797532782864
 20
4672.113198456589
 30
0.0
 11
1218.575828974431
 21
4646.577526764498
 31
0.0
 12
1438.822834263471
 22
4672.113198456589
 32
0.0
 13
1438.822834263471
 23
4672.113198456589
 33
0.0
  0
SOLID
  5
87E
330
868
100
AcDbEntity
  8
HATCH
  6
CONTINUOUS
 62
     5
100
AcDbTrace
 10
1295.486837337964
 20
4673.018083488061
 30
0.0
 11
1252.797532782864
 21
4672.113198456589
 31
0.0
 12
1438.822834263471
 22
4672.113198456589
 32
0.0
 13
1438.822834263471
 23
4672.113198456589
 33
0.0
  0
SOLID
  5
87F
330
868
100
AcDbEntity
  8
HATCH
  6
CONTINUOUS
 62
     5
100
AcDbTrace
 10
1396.133529708369
 20
4673.018083488062
 30
0.0
 11
1295.486837337964
 21
4673.018083488061
 31
0.0
 12
1438.822834263471
 22
4672.113198456589
 32
0.0
 13
1438.822834263471
 23
4672.113198456589
 33
0.0
  0
SOLID
  5
880
330
868
100
AcDbEntity
  8
HATCH
  6
CONTINUOUS
 62
     5
100
AcDbTrace
 10
1301.404539614393
 20
4673.08712703917
 30
0.0
 11
1295.486837337964
 21
4673.018083488061
 31
0.0
 12
1396.133529708369
 22
4673.018083488062
 32
0.0
 13
1396.133529708369
 23
4673.018083488062
 33
0.0
  0
SOLID
  5
881
330
868
100
AcDbEntity
  8
HATCH
  6
CONTINUOUS
 62
     5
100
AcDbTrace
 10
1390.21582743194
 20
4673.087127039171
 30
0.0
 11
1301.404539614393
 21
4673.08712703917
 31
0.0
 12
1396.133529708369
 22
4673.018083488062
 32
0.0
 13
1396.133529708369
 23
4673.018083488062
 33
0.0
  0
SOLID
  5
882
330
868
100
AcDbEntity
  8
HATCH
  6
CONTINUOUS
 62
     5
100
AcDbTrace
 10
1385.373463055147
 20
4676.489401937938
 30
0.0
 11
1301.404539614393
 21
4673.08712703917
 31
0.0
 12
1390.21582743194
 22
4673.087127039171
 32
0.0
 13
1390.21582743194
 23
4673.087127039171
 33
0.0
  0
SOLID
  5
883
330
868
100
AcDbEntity
  8
HATCH
  6
CONTINUOUS
 62
     5
100
AcDbTrace
 10
1306.246903991186
 20
4676.489401937938
 30
0.0
 11
1301.404539614393
 21
4673.08712703917
 31
0.0
 12
1385.373463055147
 22
4676.489401937938
 32
0.0
 13
1385.373463055147
 23
4676.489401937938
 33
0.0
  0
SOLID
  5
884
330
868
100
AcDbEntity
  8
HATCH
  6
CONTINUOUS
 62
     5
100
AcDbTrace
 10
1367.847860917543
 20
4690.797178835206
 30
0.0
 11
1306.246903991186
 21
4676.489401937938
 31
0.0
 12
1385.373463055147
 22
4676.489401937938
 32
0.0
 13
1385.373463055147
 23
4676.489401937938
 33
0.0
  0
SOLID
  5
885
330
868
100
AcDbEntity
  8
HATCH
  6
CONTINUOUS
 62
     5
100
AcDbTrace
 10
1323.772506128791
 20
4690.797178835206
 30
0.0
 11
1306.246903991186
 21
4676.489401937938
 31
0.0
 12
1367.847860917543
 22
4690.797178835206
 32
0.0
 13
1367.847860917543
 23
4690.797178835206
 33
0.0
  0
SOLID
  5
886
330
868
100
AcDbEntity
  8
HATCH
  6
CONTINUOUS
 62
     5
100
AcDbTrace
 10
1345.810183523167
 20
4695.915770935481
 30
0.0
 11
1323.772506128791
 21
4690.797178835206
 31
0.0
 12
1367.847860917543
 22
4690.797178835206
 32
0.0
 13
1367.847860917543
 23
4690.797178835206
 33
0.0
  0
ENDBLK
  5
888
330
868
100
AcDbEntity
  8
0
100
AcDbBlockEnd
  0
BLOCK
  5
894
330
889
100
AcDbEntity
  8
0
100
AcDbBlockBegin
  2
*U22
 70
     1
 10
0.0
 20
0.0
 30
0.0
  3
*U22
  1

  0
SOLID
  5
88A
330
889
100
AcDbEntity
  8
HATCH
  6
CONTINUOUS
 62
     5
100
AcDbTrace
 10
1441.298116366752
 20
2830.983165566348
 30
0.0
 11
1518.861899395079
 21
2964.557391287741
 31
0.0
 12
1345.810183523167
 22
2786.649482460448
 32
0.0
 13
1345.810183523167
 23
2786.649482460448
 33
0.0
  0
SOLID
  5
88B
330
889
100
AcDbEntity
  8
HATCH
  6
CONTINUOUS
 62
     5
100
AcDbTrace
 10
1545.810183523168
 20
3116.649482460448
 30
0.0
 11
1345.810183523167
 21
2786.649482460448
 31
0.0
 12
1518.861899395079
 22
2964.557391287741
 32
0.0
 13
1518.861899395079
 23
2964.557391287741
 33
0.0
  0
SOLID
  5
88C
330
889
100
AcDbEntity
  8
HATCH
  6
CONTINUOUS
 62
     5
100
AcDbTrace
 10
1345.810183523167
 20
2786.649482460448
 30
0.0
 11
1545.810183523168
 21
3116.649482460448
 31
0.0
 12
1250.322250679535
 22
2830.983165566406
 32
0.0
 13
1250.322250679535
 23
2830.983165566406
 33
0.0
  0
SOLID
  5
88D
330
889
100
AcDbEntity
  8
HATCH
  6
CONTINUOUS
 62
     5
100
AcDbTrace
 10
1518.861899395079
 20
3268.741573633154
 30
0.0
 11
1250.322250679535
 21
2830.983165566406
 31
0.0
 12
1545.810183523168
 22
3116.649482460448
 32
0.0
 13
1545.810183523168
 23
3116.649482460448
 33
0.0
  0
SOLID
  5
88E
330
889
100
AcDbEntity
  8
HATCH
  6
CONTINUOUS
 62
     5
100
AcDbTrace
 10
1250.322250679535
 20
2830.983165566406
 30
0.0
 11
1518.861899395079
 21
3268.741573633154
 31
0.0
 12
1172.758467651255
 22
2964.55739128774
 32
0.0
 13
1172.758467651255
 23
2964.55739128774
 33
0.0
  0
SOLID
  5
88F
330
889
100
AcDbEntity
  8
HATCH
  6
CONTINUOUS
 62
     5
100
AcDbTrace
 10
1441.298116366799
 20
3402.315799354489
 30
0.0
 11
1172.758467651255
 21
2964.55739128774
 31
0.0
 12
1518.861899395079
 22
3268.741573633154
 32
0.0
 13
1518.861899395079
 23
3268.741573633154
 33
0.0
  0
SOLID
  5
890
330
889
100
AcDbEntity
  8
HATCH
  6
CONTINUOUS
 62
     5
100
AcDbTrace
 10
1172.758467651255
 20
2964.55739128774
 30
0.0
 11
1441.298116366799
 21
3402.315799354489
 31
0.0
 12
1145.810183523167
 22
3116.649482460446
 32
0.0
 13
1145.810183523167
 23
3116.649482460446
 33
0.0
  0
SOLID
  5
891
330
889
100
AcDbEntity
  8
HATCH
  6
CONTINUOUS
 62
     5
100
AcDbTrace
 10
1345.810183523168
 20
3446.649482460448
 30
0.0
 11
1145.810183523167
 21
3116.649482460446
 31
0.0
 12
1441.298116366799
 22
3402.315799354489
 32
0.0
 13
1441.298116366799
 23
3402.315799354489
 33
0.0
  0
SOLID
  5
892
330
889
100
AcDbEntity
  8
HATCH
  6
CONTINUOUS
 62
     5
100
AcDbTrace
 10
1145.810183523167
 20
3116.649482460446
 30
0.0
 11
1345.810183523168
 21
3446.649482460448
 31
0.0
 12
1172.758467651255
 22
3268.741573633153
 32
0.0
 13
1172.758467651255
 23
3268.741573633153
 33
0.0
  0
SOLID
  5
893
330
889
100
AcDbEntity
  8
HATCH
  6
CONTINUOUS
 62
     5
100
AcDbTrace
 10
1250.322250679583
 20
3402.315799354545
 30
0.0
 11
1172.758467651255
 21
3268.741573633153
 31
0.0
 12
1345.810183523168
 22
3446.649482460448
 32
0.0
 13
1345.810183523168
 23
3446.649482460448
 33
0.0
  0
ENDBLK
  5
895
330
889
100
AcDbEntity
  8
0
100
AcDbBlockEnd
  0
ENDSEC
  0
SECTION
  2
ENTITIES
  0
INSERT
  5
7D0
330
1F
100
AcDbEntity
  8
HATCH
100
AcDbBlockReference
  2
AGKA
 10
0.0
 20
0.0
 30
0.0
210
-1.0
220
0.0
230
0.0
  0
ENDSEC
  0
SECTION
  2
OBJECTS
  0
DICTIONARY
  5
C
330
0
100
AcDbDictionary
  3
ACAD_GROUP
350
D
  3
ACAD_LAYOUT
350
1A
  3
ACAD_MLINESTYLE
350
17
  3
ACAD_PLOTSETTINGS
350
19
1001
ACAD
1000
TREAT_AS_HARD
1070
     0
1000
TREAT_AS_HARD
1070
     0
1000
TREAT_AS_HARD
1070
     0
  0
DICTIONARY
  5
4F8
330
1F
100
AcDbDictionary
  3
ACAD_LAYOUTSELFREF
350
90F
  3
ACAD_SORTENTS
350
4F9
1001
ACAD
1000
TREAT_AS_HARD
1070
     1
1000
TREAT_AS_HARD
1070
     0
1000
TREAT_AS_HARD
1070
     0
  0
DICTIONARY
  5
7D3
330
50
100
AcDbDictionary
  3
ACAD_LAYOUTSELFREF
350
910
1001
ACAD
1000
TREAT_AS_HARD
1070
     0
1000
TREAT_AS_HARD
1070
     0
  0
DICTIONARY
  5
D
102
{ACAD_REACTORS
330
C
102
}
330
C
100
AcDbDictionary
1001
ACAD
1000
TREAT_AS_HARD
1070
     0
1000
TREAT_AS_HARD
1070
     0
1000
TREAT_AS_HARD
1070
     0
  0
DICTIONARY
  5
1A
102
{ACAD_REACTORS
330
C
102
}
330
C
100
AcDbDictionary
1001
ACAD
1000
TREAT_AS_HARD
1070
     0
1000
TREAT_AS_HARD
1070
     0
1000
TREAT_AS_HARD
1070
     0
  0
DICTIONARY
  5
17
102
{ACAD_REACTORS
330
C
102
}
330
C
100
AcDbDictionary
  3
STANDARD
350
18
1001
ACAD
1000
TREAT_AS_HARD
1070
     0
1000
TREAT_AS_HARD
1070
     0
1000
TREAT_AS_HARD
1070
     0
  0
DICTIONARY
  5
19
102
{ACAD_REACTORS
330
C
102
}
330
C
100
AcDbDictionary
1001
ACAD
1000
TREAT_AS_HARD
1070
     0
1000
TREAT_AS_HARD
1070
     0
1000
TREAT_AS_HARD
1070
     0
  0
XRECORD
  5
90F
102
{ACAD_REACTORS
330
4F8
102
}
330
4F8
100
AcDbXrecord
340
1F
  0
SORTENTSTABLE
  5
4F9
102
{ACAD_REACTORS
330
4F8
102
}
330
4F8
100
AcDbSortentsTable
330
1F
331
42C
  5
436
331
321
  5
335
331
3B3
  5
3BD
331
699
  5
263
331
3BB
  5
3C5
331
387
  5
391
331
46D
  5
688
331
345
  5
34F
331
339
  5
343
331
275
  5
295
331
42D
  5
437
331
322
  5
336
331
3B4
  5
3BE
331
276
  5
297
331
410
  5
41A
331
3BC
  5
3C8
331
33A
  5
344
331
346
  5
350
331
35E
  5
38C
331
360
  5
38E
331
42E
  5
438
331
361
  5
38F
331
323
  5
337
331
3B5
  5
3BF
331
277
  5
298
331
3BD
  5
3C9
331
35F
  5
38D
331
347
  5
351
331
33B
  5
345
331
411
  5
427
331
42F
  5
439
331
3B6
  5
3C0
331
3A8
  5
3B2
331
412
  5
428
331
3BE
  5
3CA
331
33C
  5
346
331
430
  5
43A
331
408
  5
414
331
3B7
  5
3C1
331
413
  5
429
331
3BF
  5
3CB
331
409
  5
415
331
33D
  5
347
331
457
  5
63A
331
427
  5
431
331
431
  5
43B
331
3A9
  5
3B3
331
326
  5
338
331
2B8
  5
2CA
331
3AA
  5
3B4
331
414
  5
42A
331
298
  5
2B9
331
33E
  5
348
331
388
  5
392
331
432
  5
43C
331
40A
  5
416
331
390
  5
39A
331
63A
  5
264
331
32A
  5
33A
331
327
  5
339
331
2B9
  5
2CB
331
415
  5
42B
331
299
  5
2BC
331
40B
  5
417
331
33F
  5
349
331
389
  5
393
331
433
  5
43D
331
3AB
  5
3B5
331
391
  5
39B
331
63B
  5
760
331
32B
  5
33B
331
3AC
  5
3B6
331
263
  5
291
331
416
  5
42C
331
398
  5
3AC
331
29A
  5
2BD
331
626
  5
757
331
38A
  5
394
331
434
  5
43E
331
40C
  5
418
331
392
  5
39C
331
63C
  5
28D
331
32C
  5
33C
331
3AD
  5
3B7
331
264
  5
292
331
417
  5
42D
331
399
  5
3AD
331
29B
  5
2C0
331
38B
  5
395
331
435
  5
43F
331
393
  5
3A7
331
32D
  5
33D
331
2BC
  5
2CC
331
3AE
  5
3B8
331
265
  5
293
331
39A
  5
3AE
331
38C
  5
396
331
436
  5
440
331
29C
  5
2C1
331
394
  5
3A8
331
3AF
  5
3B9
331
649
  5
277
331
39B
  5
3AF
331
29D
  5
2C6
331
40F
  5
419
331
437
  5
441
331
38D
  5
397
331
2BD
  5
2CD
331
395
  5
3A9
331
28C
  5
299
331
39C
  5
3B0
331
440
  5
44C
331
38E
  5
398
331
29E
  5
2C7
331
2C0
  5
2CE
331
3C0
  5
3CC
331
396
  5
3AA
331
441
  5
457
331
4F5
  5
699
331
28D
  5
29A
331
38F
  5
399
331
2C1
  5
2CF
331
397
  5
3AB
331
3C1
  5
3CD
331
2FC
  5
306
331
442
  5
458
331
310
  5
32C
331
348
  5
35E
331
3C2
  5
3D8
331
2FD
  5
309
331
443
  5
459
331
4F7
  5
28F
331
28F
  5
29B
331
309
  5
321
331
349
  5
35F
331
3C3
  5
3D9
331
2FE
  5
30A
331
2C8
  5
2D2
331
334
  5
33E
331
444
  5
45A
331
3C8
  5
402
331
2D8
  5
302
331
34A
  5
360
331
3C4
  5
3DA
331
30A
  5
322
331
2C9
  5
2D3
331
335
  5
33F
331
3C9
  5
403
331
445
  5
45B
331
2FF
  5
30B
331
2D9
  5
303
331
30B
  5
323
331
34B
  5
361
331
3C5
  5
3DB
331
2CA
  5
2D4
331
3CA
  5
404
331
446
  5
45C
331
336
  5
340
331
2DA
  5
304
331
30C
  5
326
331
34C
  5
386
331
2C6
  5
2D0
331
2CB
  5
2D5
331
337
  5
341
331
3CB
  5
405
331
2B5
  5
2C9
331
2DB
  5
305
331
30D
  5
327
331
2C7
  5
2D1
331
34D
  5
387
331
2CC
  5
2D6
331
3CC
  5
406
331
688
  5
274
331
30E
  5
32A
331
34E
  5
388
331
458
  5
63B
331
438
  5
442
331
3D8
  5
408
331
2CD
  5
2D7
331
3CD
  5
407
331
31B
  5
32D
331
30F
  5
32B
331
3D9
  5
409
331
34F
  5
389
331
459
  5
63C
331
439
  5
443
331
291
  5
29C
331
2CE
  5
2D8
331
300
  5
30C
331
449
  5
46D
331
292
  5
29D
331
350
  5
38A
331
45A
  5
649
331
43A
  5
444
331
3DA
  5
40A
331
2CF
  5
2D9
331
301
  5
30D
331
44A
  5
4F5
331
3DB
  5
40B
331
351
  5
38B
331
45B
  5
657
331
43B
  5
445
331
293
  5
29E
331
44B
  5
4F7
331
302
  5
30E
331
294
  5
2A9
331
45C
  5
677
331
43C
  5
446
331
2D0
  5
2DA
331
3A7
  5
3B1
331
303
  5
30F
331
44C
  5
626
331
295
  5
2B5
331
2D1
  5
2DB
331
43D
  5
449
331
304
  5
310
331
402
  5
40C
331
760
  5
275
331
43E
  5
44A
331
2D2
  5
2FC
331
305
  5
31B
331
2A9
  5
2C8
331
297
  5
2B8
331
43F
  5
44B
331
2D3
  5
2FD
331
403
  5
40F
331
306
  5
320
331
404
  5
410
331
418
  5
42E
331
340
  5
34A
331
2D4
  5
2FE
331
428
  5
432
331
757
  5
276
331
2D5
  5
2FF
331
657
  5
265
331
341
  5
34B
331
419
  5
42F
331
405
  5
411
331
429
  5
433
331
3B0
  5
3BA
331
406
  5
412
331
3B8
  5
3C2
331
41A
  5
430
331
342
  5
34C
331
2D6
  5
300
331
42A
  5
434
331
677
  5
28C
331
3B1
  5
3BB
331
3B9
  5
3C3
331
343
  5
34D
331
2D7
  5
301
331
407
  5
413
331
42B
  5
435
331
320
  5
334
331
3B2
  5
3BC
331
274
  5
294
331
3BA
  5
3C4
331
386
  5
390
331
344
  5
34E
331
338
  5
342
  0
XRECORD
  5
910
102
{ACAD_REACTORS
330
7D3
102
}
330
7D3
100
AcDbXrecord
340
50
  0
MLINESTYLE
  5
18
102
{ACAD_REACTORS
330
17
102
}
330
17
100
AcDbMlineStyle
  2
STANDARD
 70
     0
  3

 62
   256
 51
90.0
 52
90.0
 71
     2
 49
0.5
 62
   256
  6
BYLAYER
 49
-0.5
 62
   256
  6
BYLAYER
  0
ENDSEC
  0
EOF
