  0
SECTION
  2
HEADER
  9
$ACADVER
  1
AC1012
  9
$DWGCODEPAGE
  3
ANSI_1252
  9
$INSBASE
 10
0.0
 20
0.0
 30
0.0
  9
$EXTMIN
 10
162.2688436205198
 20
342.8549713749755
 30
-4076.236884463239
  9
$EXTMAX
 10
3912.268843620522
 20
3656.515994086684
 30
0.0
  9
$LIMMIN
 10
0.0
 20
0.0
  9
$LIMMAX
 10
420.0
 20
297.0
  9
$ORTHOMODE
 70
     1
  9
$REGENMODE
 70
     1
  9
$FILLMODE
 70
     1
  9
$QTEXTMODE
 70
     0
  9
$MIRRTEXT
 70
     1
  9
$DRAGMODE
 70
     2
  9
$LTSCALE
 40
1.0
  9
$OSMODE
 70
  2179
  9
$ATTMODE
 70
     1
  9
$TEXTSIZE
 40
75.18097186823435
  9
$TRACEWID
 40
1.0
  9
$TEXTSTYLE
  7
STANDARD
  9
$CLAYER
  8
HATCH
  9
$CELTYPE
  6
BYLAYER
  9
$CECOLOR
 62
   256
  9
$CELTSCALE
 40
1.0
  9
$DELOBJ
 70
     1
  9
$DISPSILH
 70
     0
  9
$DIMSCALE
 40
1.0
  9
$DIMASZ
 40
2.5
  9
$DIMEXO
 40
0.625
  9
$DIMDLI
 40
3.75
  9
$DIMRND
 40
0.0
  9
$DIMDLE
 40
0.0
  9
$DIMEXE
 40
1.25
  9
$DIMTP
 40
0.0
  9
$DIMTM
 40
0.0
  9
$DIMTXT
 40
2.5
  9
$DIMCEN
 40
2.5
  9
$DIMTSZ
 40
0.0
  9
$DIMTOL
 70
     0
  9
$DIMLIM
 70
     0
  9
$DIMTIH
 70
     0
  9
$DIMTOH
 70
     0
  9
$DIMSE1
 70
     0
  9
$DIMSE2
 70
     0
  9
$DIMTAD
 70
     1
  9
$DIMZIN
 70
     8
  9
$DIMBLK
  1

  9
$DIMASO
 70
     1
  9
$DIMSHO
 70
     1
  9
$DIMPOST
  1

  9
$DIMAPOST
  1

  9
$DIMALT
 70
     0
  9
$DIMALTD
 70
     3
  9
$DIMALTF
 40
0.03937007874016
  9
$DIMLFAC
 40
1.0
  9
$DIMTOFL
 70
     1
  9
$DIMTVP
 40
0.0
  9
$DIMTIX
 70
     0
  9
$DIMSOXD
 70
     0
  9
$DIMSAH
 70
     0
  9
$DIMBLK1
  1

  9
$DIMBLK2
  1

  9
$DIMSTYLE
  2
ISO-25
  9
$DIMCLRD
 70
     0
  9
$DIMCLRE
 70
     0
  9
$DIMCLRT
 70
     0
  9
$DIMTFAC
 40
1.0
  9
$DIMGAP
 40
0.625
  9
$DIMJUST
 70
     0
  9
$DIMSD1
 70
     0
  9
$DIMSD2
 70
     0
  9
$DIMTOLJ
 70
     0
  9
$DIMTZIN
 70
     8
  9
$DIMALTZ
 70
     0
  9
$DIMALTTZ
 70
     0
  9
$DIMFIT
 70
     3
  9
$DIMUPT
 70
     0
  9
$DIMUNIT
 70
     2
  9
$DIMDEC
 70
     2
  9
$DIMTDEC
 70
     2
  9
$DIMALTU
 70
     2
  9
$DIMALTTD
 70
     3
  9
$DIMTXSTY
  7
STANDARD
  9
$DIMAUNIT
 70
     0
  9
$LUNITS
 70
     2
  9
$LUPREC
 70
     4
  9
$SKETCHINC
 40
1.0
  9
$FILLETRAD
 40
10.0
  9
$AUNITS
 70
     0
  9
$AUPREC
 70
     0
  9
$MENU
  1
.
  9
$ELEVATION
 40
0.0
  9
$PELEVATION
 40
0.0
  9
$THICKNESS
 40
0.0
  9
$LIMCHECK
 70
     0
  9
$BLIPMODE
 70
     0
  9
$CHAMFERA
 40
10.0
  9
$CHAMFERB
 40
10.0
  9
$CHAMFERC
 40
20.0
  9
$CHAMFERD
 40
0.0
  9
$SKPOLY
 70
     0
  9
$TDCREATE
 40
2452626.498985301
  9
$TDUPDATE
 40
2452772.389806250
  9
$TDINDWG
 40
0.0369679398
  9
$TDUSRTIMER
 40
0.0369666667
  9
$USRTIMER
 70
     1
  9
$ANGBASE
 50
0.0
  9
$ANGDIR
 70
     0
  9
$PDMODE
 70
     0
  9
$PDSIZE
 40
0.0
  9
$PLINEWID
 40
0.0
  9
$COORDS
 70
     2
  9
$SPLFRAME
 70
     0
  9
$SPLINETYPE
 70
     6
  9
$SPLINESEGS
 70
     8
  9
$ATTDIA
 70
     0
  9
$ATTREQ
 70
     1
  9
$HANDLING
 70
-16383
  9
$HANDSEED
  5
382
  9
$SURFTAB1
 70
     6
  9
$SURFTAB2
 70
     6
  9
$SURFTYPE
 70
     6
  9
$SURFU
 70
     6
  9
$SURFV
 70
     6
  9
$UCSNAME
  2

  9
$UCSORG
 10
0.0
 20
0.0
 30
0.0
  9
$UCSXDIR
 10
1.0
 20
0.0
 30
0.0
  9
$UCSYDIR
 10
0.0
 20
1.0
 30
0.0
  9
$PUCSNAME
  2

  9
$PUCSORG
 10
0.0
 20
0.0
 30
0.0
  9
$PUCSXDIR
 10
1.0
 20
0.0
 30
0.0
  9
$PUCSYDIR
 10
0.0
 20
1.0
 30
0.0
  9
$USERI1
 70
     0
  9
$USERI2
 70
     0
  9
$USERI3
 70
     0
  9
$USERI4
 70
     0
  9
$USERI5
 70
     0
  9
$USERR1
 40
0.0
  9
$USERR2
 40
0.0
  9
$USERR3
 40
0.0
  9
$USERR4
 40
0.0
  9
$USERR5
 40
0.0
  9
$WORLDVIEW
 70
     1
  9
$SHADEDGE
 70
     3
  9
$SHADEDIF
 70
    70
  9
$TILEMODE
 70
     1
  9
$MAXACTVP
 70
    64
  9
$PINSBASE
 10
0.0
 20
0.0
 30
0.0
  9
$PLIMCHECK
 70
     0
  9
$PEXTMIN
 10
0.0
 20
0.0
 30
0.0
  9
$PEXTMAX
 10
0.0
 20
0.0
 30
0.0
  9
$PLIMMIN
 10
0.0
 20
0.0
  9
$PLIMMAX
 10
12.0
 20
9.0
  9
$UNITMODE
 70
     0
  9
$VISRETAIN
 70
     1
  9
$PLINEGEN
 70
     0
  9
$PSLTSCALE
 70
     1
  9
$TREEDEPTH
 70
  3020
  9
$PICKSTYLE
 70
     1
  9
$CMLSTYLE
  2
STANDARD
  9
$CMLJUST
 70
     0
  9
$CMLSCALE
 40
20.0
  9
$SAVEIMAGES
 70
     1
  0
ENDSEC
  0
SECTION
  2
CLASSES
  0
CLASS
  1
ACDBDICTIONARYWDFLT
  2
AcDbDictionaryWithDefault
  3
AutoCAD 2000
 90
    32768
280
     0
281
     0
  0
CLASS
  1
ACDBPLACEHOLDER
  2
AcDbPlaceHolder
  3
AutoCAD 2000
 90
    32768
280
     0
281
     0
  0
CLASS
  1
LAYOUT
  2
AcDbLayout
  3
AutoCAD 2000
 90
    32768
280
     0
281
     0
  0
CLASS
  1
LONG_TRANSACTION
  2
AcDbLongTransaction
  3
AutoCAD 2000
 90
    32768
280
     0
281
     0
  0
CLASS
  1
LWPOLYLINE
  2
AcDbPolyline
  3
AutoCAD 2000
 90
    32768
280
     0
281
     1
  0
CLASS
  1
HATCH
  2
AcDbHatch
  3
AutoCAD 2000
 90
    32768
280
     0
281
     1
  0
CLASS
  1
XRECORD
  2
AcDbXrecord
  3
AutoCAD 2000
 90
    32768
280
     0
281
     0
  0
CLASS
  1
LONG_TRANSACTION
  2
AcDbLongTransaction
  3
AutoCAD 2000
 90
    32768
280
     0
281
     0
  0
CLASS
  1
LWPOLYLINE
  2
AcDbPolyline
  3
AutoCAD 2000
 90
    32768
280
     0
281
     1
  0
CLASS
  1
HATCH
  2
AcDbHatch
  3
AutoCAD 2000
 90
    32768
280
     0
281
     1
  0
CLASS
  1
XRECORD
  2
AcDbXrecord
  3
AutoCAD 2000
 90
    32768
280
     0
281
     0
  0
CLASS
  1
LONG_TRANSACTION
  2
AcDbLongTransaction
  3
AutoCAD 2000
 90
    32768
280
     0
281
     0
  0
CLASS
  1
LWPOLYLINE
  2
AcDbPolyline
  3
AutoCAD 2000
 90
    32768
280
     0
281
     1
  0
CLASS
  1
HATCH
  2
AcDbHatch
  3
AutoCAD 2000
 90
    32768
280
     0
281
     1
  0
CLASS
  1
XRECORD
  2
AcDbXrecord
  3
AutoCAD 2000
 90
    32768
280
     0
281
     0
  0
CLASS
  1
DICTIONARYVAR
  2
AcDbDictionaryVar
  3
AutoCAD 2000
 90
    32768
280
     0
281
     0
  0
CLASS
  1
SORTENTSTABLE
  2
AcDbSortentsTable
  3
AutoCAD 2000
 90
    32768
280
     0
281
     0
  0
CLASS
  1
LONG_TRANSACTION
  2
AcDbLongTransaction
  3
AutoCAD 2000
 90
    32768
280
     0
281
     0
  0
CLASS
  1
LWPOLYLINE
  2
AcDbPolyline
  3
AutoCAD 2000
 90
    32768
280
     0
281
     1
  0
CLASS
  1
HATCH
  2
AcDbHatch
  3
AutoCAD 2000
 90
    32768
280
     0
281
     1
  0
CLASS
  1
XRECORD
  2
AcDbXrecord
  3
AutoCAD 2000
 90
    32768
280
     0
281
     0
  0
ENDSEC
  0
SECTION
  2
TABLES
  0
TABLE
  2
VPORT
  5
8
330
0
100
AcDbSymbolTable
 70
     2
  0
VPORT
  5
316
330
8
100
AcDbSymbolTableRecord
100
AcDbViewportTableRecord
  2
*ACTIVE
 70
     0
 10
0.0
 20
0.0
 11
1.0
 21
1.0
 12
4888.584750484016
 22
1774.950898833856
 13
0.0
 23
0.0
 14
10.0
 24
10.0
 15
10.0
 25
10.0
 16
0.0
 26
0.0
 36
1.0
 17
0.0
 27
0.0
 37
0.0
 40
7049.045194318764
 41
1.985355648535564
 42
50.0
 43
0.0
 44
0.0
 50
0.0
 51
0.0
 71
     0
 72
   100
 73
     1
 74
     3
 75
     0
 76
     0
 77
     0
 78
     0
  0
ENDTAB
  0
TABLE
  2
LTYPE
  5
5
330
0
100
AcDbSymbolTable
 70
     2
  0
LTYPE
  5
14
330
5
100
AcDbSymbolTableRecord
100
AcDbLinetypeTableRecord
  2
BYBLOCK
 70
     0
  3

 72
    65
 73
     0
 40
0.0
  0
LTYPE
  5
15
330
5
100
AcDbSymbolTableRecord
100
AcDbLinetypeTableRecord
  2
BYLAYER
 70
     0
  3

 72
    65
 73
     0
 40
0.0
  0
LTYPE
  5
16
330
5
100
AcDbSymbolTableRecord
100
AcDbLinetypeTableRecord
  2
CONTINUOUS
 70
     0
  3
Solid line
 72
    65
 73
     0
 40
0.0
  0
LTYPE
  5
5D
330
5
100
AcDbSymbolTableRecord
100
AcDbLinetypeTableRecord
  2
DASHED
 70
     0
  3
Dashed __ __ __ __ __ __ __ __ __ __ __ __ __ _
 72
    65
 73
     2
 40
0.75
 49
0.5
 74
     0
 49
-0.25
 74
     0
  0
ENDTAB
  0
TABLE
  2
LAYER
  5
2
330
0
100
AcDbSymbolTable
 70
     5
  0
LAYER
  5
10
330
2
100
AcDbSymbolTableRecord
100
AcDbLayerTableRecord
  2
0
 70
     0
 62
     7
  6
CONTINUOUS
  0
LAYER
  5
5E
330
2
100
AcDbSymbolTableRecord
100
AcDbLayerTableRecord
  2
SAFETY
 70
     0
 62
     7
  6
CONTINUOUS
  0
LAYER
  5
5F
330
2
100
AcDbSymbolTableRecord
100
AcDbLayerTableRecord
  2
OBJECT
 70
     0
 62
     7
  6
CONTINUOUS
  0
LAYER
  5
18C
330
2
100
AcDbSymbolTableRecord
100
AcDbLayerTableRecord
  2
TEKST
 70
     0
 62
     7
  6
CONTINUOUS
  0
LAYER
  5
269
330
2
100
AcDbSymbolTableRecord
100
AcDbLayerTableRecord
  2
HATCH
 70
     0
 62
     7
  6
CONTINUOUS
  0
ENDTAB
  0
TABLE
  2
STYLE
  5
3
330
0
100
AcDbSymbolTable
 70
     3
  0
STYLE
  5
11
330
3
100
AcDbSymbolTableRecord
100
AcDbTextStyleTableRecord
  2
STANDARD
 70
     0
 40
0.0
 41
1.0
 50
0.0
 71
     0
 42
75.18097186823435
  3
txt
  4

  0
STYLE
  5
60
330
3
100
AcDbSymbolTableRecord
100
AcDbTextStyleTableRecord
  2
STYLE1
 70
     0
 40
100.0
 41
1.0
 50
0.0
 71
     0
 42
75.0
  3
romans.shx
  4

  0
STYLE
  5
61
330
3
100
AcDbSymbolTableRecord
100
AcDbTextStyleTableRecord
  2
STYLE4
 70
     0
 40
3.0
 41
1.0
 50
0.0
 71
     0
 42
3.0
  3
romant.shx
  4

  0
ENDTAB
  0
TABLE
  2
VIEW
  5
6
330
0
100
AcDbSymbolTable
 70
     0
  0
ENDTAB
  0
TABLE
  2
UCS
  5
7
330
0
100
AcDbSymbolTable
 70
     0
  0
ENDTAB
  0
TABLE
  2
APPID
  5
9
330
0
100
AcDbSymbolTable
 70
     2
  0
APPID
  5
12
330
9
100
AcDbSymbolTableRecord
100
AcDbRegAppTableRecord
  2
ACAD
 70
     0
  0
APPID
  5
181
330
9
100
AcDbSymbolTableRecord
100
AcDbRegAppTableRecord
  2
CONTENTBLOCKICON
 70
     0
  0
ENDTAB
  0
TABLE
  2
DIMSTYLE
  5
A
330
0
100
AcDbSymbolTable
 70
     2
  0
DIMSTYLE
105
27
330
A
100
AcDbSymbolTableRecord
100
AcDbDimStyleTableRecord
  2
ISO-25
 70
     0
  3

  4

  5

  6

  7

 40
1.0
 41
2.5
 42
0.625
 43
3.75
 44
1.25
 45
0.0
 46
0.0
 47
0.0
 48
0.0
140
2.5
141
2.5
142
0.0
143
0.03937007874016
144
1.0
145
0.0
146
1.0
147
0.625
 71
     0
 72
     0
 73
     0
 74
     0
 75
     0
 76
     0
 77
     1
 78
     8
170
     0
171
     3
172
     1
173
     0
174
     0
175
     0
176
     0
177
     0
178
     0
270
     2
271
     2
272
     2
273
     2
274
     3
340
11
275
     0
280
     0
281
     0
282
     0
283
     0
284
     8
285
     0
286
     0
287
     3
288
     0
  0
DIMSTYLE
105
62
330
A
100
AcDbSymbolTableRecord
100
AcDbDimStyleTableRecord
  2
STAND-1
 70
     0
  3

  4

  5

  6

  7

 40
10.0
 41
10.0
 42
2.0
 43
7.0
 44
2.0
 45
0.0
 46
0.0
 47
0.0
 48
0.0
140
100.0
141
0.09
142
0.0
143
25.4
144
1.0
145
0.0
146
1.0
147
3.0
 71
     0
 72
     0
 73
     0
 74
     0
 75
     0
 76
     0
 77
     1
 78
     8
170
     0
171
     2
172
     1
173
     0
174
     0
175
     0
176
     1
177
     1
178
     1
270
     2
271
     1
272
     0
273
     2
274
     2
340
60
275
     0
280
     0
281
     0
282
     0
283
     1
284
     0
285
     0
286
     0
287
     3
288
     0
  0
ENDTAB
  0
TABLE
  2
BLOCK_RECORD
  5
1
330
0
100
AcDbSymbolTable
 70
     6
  0
BLOCK_RECORD
  5
1F
102
{ACAD_XDICTIONARY
360
10B
102
}
330
1
100
AcDbSymbolTableRecord
100
AcDbBlockTableRecord
  2
*MODEL_SPACE
  0
BLOCK_RECORD
  5
50
102
{ACAD_XDICTIONARY
360
10D
102
}
330
1
100
AcDbSymbolTableRecord
100
AcDbBlockTableRecord
  2
*PAPER_SPACE
  0
BLOCK_RECORD
  5
119
330
1
100
AcDbSymbolTableRecord
100
AcDbBlockTableRecord
  2
AAKA
1001
ACAD
1000
DesignCenter Data
1002
{
1070
     1
1070
     4
1002
}
1001
CONTENTBLOCKICON
1071
        0
1004
28000000200000002000000001000800000000000004000000000000000000000000000000000000000000004000000080000000FF000000002000004020000080200000FF200000004000004040000080400000FF400000006000004060000080600000FF600000008000004080000080800000FF80000000A0000040A000
1004
0080A00000FFA0000000C0000040C0000080C00000FFC0000000FF000040FF000080FF0000FFFF0000000020004000200080002000FF002000002020004020200080202000FF202000004020004040200080402000FF402000006020004060200080602000FF602000008020004080200080802000FF80200000A0200040A0
1004
200080A02000FFA0200000C0200040C0200080C02000FFC0200000FF200040FF200080FF2000FFFF2000000040004000400080004000FF004000002040004020400080204000FF204000004040004040400080404000FF404000006040004060400080604000FF604000008040004080400080804000FF80400000A0400040
1004
A0400080A04000FFA0400000C0400040C0400080C04000FFC0400000FF400040FF400080FF4000FFFF4000000060004000600080006000FF006000002060004020600080206000FF206000004060004040600080406000FF406000006060004060600080606000FF606000008060004080600080806000FF80600000A06000
1004
40A0600080A06000FFA0600000C0600040C0600080C06000FFC0600000FF600040FF600080FF6000FFFF6000000080004000800080008000FF008000002080004020800080208000FF208000004080004040800080408000FF408000006080004060800080608000FF608000008080004080800080808000FF80800000A080
1004
0040A0800080A08000FFA0800000C0800040C0800080C08000FFC0800000FF800040FF800080FF8000FFFF80000000A0004000A0008000A000FF00A0000020A0004020A0008020A000FF20A0000040A0004040A0008040A000FF40A0000060A0004060A0008060A000FF60A0000080A0004080A0008080A000FF80A00000A0
1004
A00040A0A00080A0A000FFA0A00000C0A00040C0A00080C0A000FFC0A00000FFA00040FFA00080FFA000FFFFA0000000C0004000C0008000C000FF00C0000020C0004020C0008020C000FF20C0000040C0004040C0008040C000FF40C0000060C0004060C0008060C000FF60C0000080C0004080C0008080C000FF80C00000
1004
A0C00040A0C00080A0C000FFA0C00000C0C00040C0C00080C0C000FFC0C00000FFC00040FFC00080FFC000FFFFC0000000FF004000FF008000FF00FF00FF000020FF004020FF008020FF00FF20FF000040FF004040FF008040FF00FF40FF000060FF004060FF008060FF00FF60FF000080FF004080FF008080FF00FF80FF00
1004
00A0FF0040A0FF0080A0FF00FFA0FF0000C0FF0040C0FF0080C0FF00FFC0FF0000FFFF0040FFFF0080FFFF00FFFFFF0000000000000000000000000000000000000000000000000000000000000000000000000000000000000000000000000000000000000000000000000000000000000000000000000000000000000000
1004
000000000000000000000000000000000000000000000000000000000000000000000000000000000000000000000000000000000000000000000000FFFFFFFFFFFFFFFFFFFFFF00000000000000000000000000000000000000FFFF0000000000000000000000FFFF00000000000000000000000000000000FF0000000000
1004
00000000000000000000FF000000000000000000000000000000FF000000000000000000000000000000FF0000000000000000000000000000FF0000000000000000000000000000000000FF000000000000000000000000FF00000000000000000000000000000000000000FF00000000000000000000FF00000000000000
1004
00000000000000000000000000FF00000000000000000000FF000000000000000000000000000000000000000000FF0000000000000000FF00000000000000000000000000000000000000000000FF00000000000000FF000000000000000000000000000000000000000000000000FF0000000000FF000000000000000000
1004
00000000FFFF0000000000000000000000FF00000000FF000000000000000000FFFFFFFF00FFFF00000000000000000000FF000000FF00000000000000000000FFFFFFFF00FFFF0000000000000000000000FF000000FF00000000000000000000000000FFFF0000000000000000000000FF0000000000FF00000000000000
1004
000000000000000000000000000000000000FF0000000000FF000000000000000000000000000000000000000000000000FF00000000000000FF00000000000000000000000000000000000000000000FF000000000000000000FF000000000000000000000000000000000000000000FF00000000000000000000FF000000
1004
00000000000000000000000000000000FF000000000000000000000000FF0000000000000000000000000000000000FF00000000000000000000000000FF00000000000000000000000000000000FF000000000000000000000000000000FF000000000000000000000000000000FF00000000000000000000000000000000
1004
FFFF0000000000000000000000FFFF00000000000000000000000000000000000000FFFFFFFFFFFFFFFFFFFFFF00000000000000000000000000000000000000000000000000000000000000000000000000000000000000000000000000000000000000000000000000000000000000000000000000000000000000000000
1004
0000000000000000000000000000000000000000000000000000000000000000000000000000000000000000000000000000000000000000
  0
BLOCK_RECORD
  5
2C6
330
1
100
AcDbSymbolTableRecord
100
AcDbBlockTableRecord
  2
AAKK
  0
BLOCK_RECORD
  5
323
330
1
100
AcDbSymbolTableRecord
100
AcDbBlockTableRecord
  2
*U2
  0
BLOCK_RECORD
  5
32E
330
1
100
AcDbSymbolTableRecord
100
AcDbBlockTableRecord
  2
*U3
  0
BLOCK_RECORD
  5
337
330
1
100
AcDbSymbolTableRecord
100
AcDbBlockTableRecord
  2
*U4
  0
BLOCK_RECORD
  5
348
330
1
100
AcDbSymbolTableRecord
100
AcDbBlockTableRecord
  2
*U5
  0
ENDTAB
  0
ENDSEC
  0
SECTION
  2
BLOCKS
  0
BLOCK
  5
20
330
1F
100
AcDbEntity
  8
0
100
AcDbBlockBegin
  2
*MODEL_SPACE
 70
     0
 10
0.0
 20
0.0
 30
0.0
  3
*MODEL_SPACE
  1

  0
ENDBLK
  5
21
330
1F
100
AcDbEntity
  8
0
100
AcDbBlockEnd
  0
BLOCK
  5
52
330
50
100
AcDbEntity
 67
     1
  8
0
100
AcDbBlockBegin
  2
*PAPER_SPACE
 70
     0
 10
0.0
 20
0.0
 30
0.0
  3
*PAPER_SPACE
  1

  0
ENDBLK
  5
53
330
50
100
AcDbEntity
 67
     1
  8
0
100
AcDbBlockEnd
  0
BLOCK
  5
11A
330
119
100
AcDbEntity
  8
0
100
AcDbBlockBegin
  2
AAKA
 70
     0
 10
0.0
 20
0.0
 30
0.0
  3
AAKA
  1

  0
POLYLINE
  5
11C
330
119
100
AcDbEntity
  8
SAFETY
  6
DASHED
 48
5.0
100
AcDb2dPolyline
 66
     1
 10
0.0
 20
0.0
 30
-4076.236884463239
 70
     1
  0
VERTEX
  5
31A
330
11C
100
AcDbEntity
  8
SAFETY
  6
DASHED
 48
5.0
100
AcDbVertex
100
AcDb2dVertex
 10
2986.379335290186
 20
613.9015373212944
 30
-4076.236884463239
 42
0.6681340994008354
  0
VERTEX
  5
31B
330
11C
100
AcDbEntity
  8
SAFETY
  6
DASHED
 48
5.0
100
AcDbVertex
100
AcDb2dVertex
 10
2986.379335290186
 20
3385.469428140364
 30
-4076.236884463239
  0
VERTEX
  5
31C
330
11C
100
AcDbEntity
  8
SAFETY
  6
DASHED
 48
5.0
100
AcDbVertex
100
AcDb2dVertex
 10
2636.379335290186
 20
3530.469428140363
 30
-4076.236884463239
 42
0.1872763773951654
  0
VERTEX
  5
31D
330
11C
100
AcDbEntity
  8
SAFETY
  6
DASHED
 48
5.0
100
AcDbVertex
100
AcDb2dVertex
 10
1551.069858188419
 20
3554.889580474554
 30
-4076.236884463239
  0
VERTEX
  5
31E
330
11C
100
AcDbEntity
  8
SAFETY
  6
DASHED
 48
5.0
100
AcDbVertex
100
AcDb2dVertex
 10
1151.069858188421
 20
3409.889580474553
 30
-4076.236884463239
 42
0.7011758199752413
  0
VERTEX
  5
31F
330
11C
100
AcDbEntity
  8
SAFETY
  6
DASHED
 48
5.0
100
AcDbVertex
100
AcDb2dVertex
 10
1151.069858188421
 20
589.4813849871054
 30
-4076.236884463239
  0
VERTEX
  5
320
330
11C
100
AcDbEntity
  8
SAFETY
  6
DASHED
 48
5.0
100
AcDbVertex
100
AcDb2dVertex
 10
1551.069858188419
 20
444.4813849871054
 30
-4076.236884463239
 42
0.187276377395165
  0
VERTEX
  5
321
330
11C
100
AcDbEntity
  8
SAFETY
  6
DASHED
 48
5.0
100
AcDbVertex
100
AcDb2dVertex
 10
2636.379335290186
 20
468.9015373212944
 30
-4076.236884463239
  0
SEQEND
  5
322
330
11C
100
AcDbEntity
  8
SAFETY
  6
DASHED
 48
5.0
  0
ARC
  5
11D
330
119
100
AcDbEntity
  8
OBJECT
 62
     7
100
AcDbCircle
 10
2233.862770895052
 20
2095.443022175069
 30
-4076.236884463239
 40
8.0
100
AcDbArc
 50
0.0
 51
42.41511354214487
  0
LINE
  5
11E
330
119
100
AcDbEntity
  8
OBJECT
 62
     7
100
AcDbLine
 10
2398.688748566784
 20
1993.659435876135
 30
-4076.236884463239
 11
2398.688748566784
 21
2014.154748603103
 31
-4076.236884463239
  0
LINE
  5
11F
330
119
100
AcDbEntity
  8
OBJECT
 62
     7
100
AcDbLine
 10
2398.688748566784
 20
2014.154748603103
 30
-4076.236884463239
 11
2292.529621005703
 21
2014.154748603103
 31
-4076.236884463239
  0
LINE
  5
120
330
119
100
AcDbEntity
  8
OBJECT
 62
     7
100
AcDbLine
 10
2292.529621005703
 20
2014.154748603103
 30
-4076.236884463239
 11
2292.529621005703
 21
2020.182784373278
 31
-4076.236884463239
  0
LINE
  5
121
330
119
100
AcDbEntity
  8
OBJECT
 62
     7
100
AcDbLine
 10
2292.529621005703
 20
2020.182784373278
 30
-4076.236884463239
 11
2270.815248434553
 21
2020.182784373278
 31
-4076.236884463239
  0
LINE
  5
122
330
119
100
AcDbEntity
  8
OBJECT
 62
     7
100
AcDbLine
 10
2270.815248434553
 20
2020.182784373278
 30
-4076.236884463239
 11
2270.815248434553
 21
2040.678097100247
 31
-4076.236884463239
  0
LINE
  5
123
330
119
100
AcDbEntity
  8
OBJECT
 62
     7
100
AcDbLine
 10
2270.815248434553
 20
2040.678097100247
 30
-4076.236884463239
 11
2241.862770895049
 21
2040.678097100247
 31
-4076.236884463239
  0
LINE
  5
124
330
119
100
AcDbEntity
  8
OBJECT
 62
     7
100
AcDbLine
 10
2292.538877186624
 20
1987.470543749781
 30
-4076.236884463239
 11
2270.824529545147
 21
1987.437639889266
 31
-4076.236884463239
  0
LINE
  5
125
330
119
100
AcDbEntity
  8
OBJECT
 62
     7
100
AcDbLine
 10
2292.5297428841
 20
1993.498572599331
 30
-4076.236884463239
 11
2292.538877186624
 21
1987.470543749781
 31
-4076.236884463239
  0
LINE
  5
126
330
119
100
AcDbEntity
  8
OBJECT
 62
     7
100
AcDbLine
 10
2398.688748566784
 20
1993.659435876135
 30
-4076.236884463239
 11
2292.5297428841
 21
1993.498572599331
 31
-4076.236884463239
  0
LINE
  5
127
330
119
100
AcDbEntity
  8
OBJECT
 62
     7
100
AcDbLine
 10
2270.824529545147
 20
1987.437639889266
 30
-4076.236884463239
 11
2270.855586160251
 21
1966.942350692406
 31
-4076.236884463239
  0
LINE
  5
128
330
119
100
AcDbEntity
  8
OBJECT
 62
     7
100
AcDbLine
 10
2270.855586160251
 20
1966.942350692406
 30
-4076.236884463239
 11
2242.363528546703
 21
1966.899176533783
 31
-4076.236884463239
  0
LINE
  5
129
330
119
100
AcDbEntity
  8
OBJECT
 62
     7
100
AcDbLine
 10
2241.903141860301
 20
1966.898478907514
 30
-4076.236884463239
 11
2241.986127332243
 21
1912.133616706812
 31
-4076.236884463239
  0
LINE
  5
12A
330
119
100
AcDbEntity
  8
OBJECT
 62
     7
100
AcDbLine
 10
2241.862770895049
 20
2040.678097100247
 30
-4076.236884463239
 11
2241.862770895049
 21
1967.399175959747
 31
-4076.236884463239
  0
ARC
  5
12B
330
119
100
AcDbEntity
  8
OBJECT
 62
     7
100
AcDbCircle
 10
2242.362770895049
 20
1967.399175959747
 30
-4076.236884463239
 40
0.5
100
AcDbArc
 50
180.0
 51
270.0868205173124
  0
ARC
  5
12C
330
119
100
AcDbEntity
  8
OBJECT
 62
     7
100
AcDbCircle
 10
2233.986136516825
 20
1912.121494280375
 30
-4076.236884463239
 40
8.0
100
AcDbArc
 50
317.6717069752301
 51
0.0868205173125561
  0
LINE
  5
12D
330
119
100
AcDbEntity
  8
OBJECT
 62
     7
100
AcDbLine
 10
2241.862770895049
 20
2040.678097100247
 30
-4076.236884463239
 11
2241.862770895049
 21
2095.443022175069
 31
-4076.236884463239
  0
LINE
  5
12E
330
119
100
AcDbEntity
  8
OBJECT
 62
     7
100
AcDbLine
 10
2187.668746254523
 20
2154.005142904666
 30
-4076.236884463239
 11
2093.185452530252
 21
2154.00514290466
 31
-4076.236884463239
  0
LINE
  5
12F
330
119
100
AcDbEntity
  8
OBJECT
 62
     7
100
AcDbLine
 10
2091.38763428517
 20
2153.80051650428
 30
-4076.236884463239
 11
1998.179302938718
 21
2132.304223023659
 31
-4076.236884463239
  0
LINE
  5
130
330
119
100
AcDbEntity
  8
OBJECT
 62
     7
100
AcDbLine
 10
1998.179302938718
 20
2132.304223023659
 30
-4076.236884463239
 11
1976.304587017753
 21
2106.991285679386
 31
-4076.236884463239
  0
LINE
  5
131
330
119
100
AcDbEntity
  8
OBJECT
 62
     7
100
AcDbLine
 10
1973.827542739917
 20
2105.06579643654
 30
-4076.236884463239
 11
1923.612426412798
 21
2079.973773016011
 31
-4076.236884463239
  0
ARC
  5
132
330
119
100
AcDbEntity
  8
OBJECT
 62
     7
100
AcDbCircle
 10
2187.668746254523
 20
2146.005142904666
 30
-4076.236884463239
 40
8.0
100
AcDbArc
 50
42.41511354214487
 51
90.0
  0
ARC
  5
133
330
119
100
AcDbEntity
  8
OBJECT
 62
     7
100
AcDbCircle
 10
2093.185452530263
 20
2146.005142904662
 30
-4076.236884463239
 40
8.0
100
AcDbArc
 50
90.0
 51
102.9868418070315
  0
ARC
  5
134
330
119
100
AcDbEntity
  8
OBJECT
 62
     7
100
AcDbCircle
 10
2093.185452530252
 20
2146.00514290466
 30
-4076.236884463239
 40
8.0
100
AcDbArc
 50
90.0
 51
102.9868418070315
  0
ARC
  5
135
330
119
100
AcDbEntity
  8
OBJECT
 62
     7
100
AcDbCircle
 10
2093.185452530252
 20
2146.00514290466
 30
-4076.236884463239
 40
8.0
100
AcDbArc
 50
90.0
 51
102.9868418070315
  0
ARC
  5
136
330
119
100
AcDbEntity
  8
OBJECT
 62
     7
100
AcDbCircle
 10
2093.185452530252
 20
2146.00514290466
 30
-4076.236884463239
 40
8.0
100
AcDbArc
 50
90.0
 51
102.9868418070315
  0
ARC
  5
137
330
119
100
AcDbEntity
  8
OBJECT
 62
     7
100
AcDbCircle
 10
1970.251605206792
 20
2112.222099305982
 30
-4076.236884463239
 40
8.0
100
AcDbArc
 50
296.5508692269695
 51
319.1673627358099
  0
ARC
  5
138
330
119
100
AcDbEntity
  8
OBJECT
 62
     7
100
AcDbCircle
 10
1920.036488879672
 20
2087.13007588545
 30
-4076.236884463239
 40
8.0
100
AcDbArc
 50
273.8980867855705
 51
296.5508692269695
  0
LINE
  5
139
330
119
100
AcDbEntity
  8
OBJECT
 62
     7
100
AcDbLine
 10
1814.81353977259
 20
2096.136017294236
 30
-4076.236884463239
 11
1744.845023552414
 21
2096.136017294236
 31
-4076.236884463239
  0
ARC
  5
13A
330
119
100
AcDbEntity
  8
OBJECT
 62
     7
100
AcDbCircle
 10
1871.122099425139
 20
2067.759967243645
 30
-4076.236884463239
 40
8.0
100
AcDbArc
 50
93.89808678557054
 51
114.8912111413425
  0
LINE
  5
13B
330
119
100
AcDbEntity
  8
OBJECT
 62
     7
100
AcDbLine
 10
1920.580344688185
 20
2079.148583489945
 30
-4076.236884463239
 11
1870.578243616627
 21
2075.741459639151
 31
-4076.236884463239
  0
LINE
  5
13C
330
119
100
AcDbEntity
  8
OBJECT
 62
     7
100
AcDbLine
 10
2187.88090428546
 20
1853.489442826161
 30
-4076.236884463239
 11
2093.397719034885
 21
1853.346271978952
 31
-4076.236884463239
  0
LINE
  5
13D
330
119
100
AcDbEntity
  8
OBJECT
 62
     7
100
AcDbLine
 10
2091.599592782765
 20
1853.548173904479
 30
-4076.236884463239
 11
1998.358795041706
 21
1874.903203813291
 31
-4076.236884463239
  0
LINE
  5
13E
330
119
100
AcDbEntity
  8
OBJECT
 62
     7
100
AcDbLine
 10
1998.358795041706
 20
1874.903203813291
 30
-4076.236884463239
 11
1976.445747456892
 21
1900.182965267141
 31
-4076.236884463239
  0
LINE
  5
13F
330
119
100
AcDbEntity
  8
OBJECT
 62
     7
100
AcDbLine
 10
1973.965788322672
 20
1902.104698826007
 30
-4076.236884463239
 11
1923.712707620162
 21
1927.120602307367
 31
-4076.236884463239
  0
ARC
  5
140
330
119
100
AcDbEntity
  8
OBJECT
 62
     7
100
AcDbCircle
 10
2187.868781859023
 20
1861.489433641579
 30
-4076.236884463239
 40
8.0
100
AcDbArc
 50
270.0868205173124
 51
317.6717069752301
  0
ARC
  5
141
330
119
100
AcDbEntity
  8
OBJECT
 62
     7
100
AcDbCircle
 10
2093.385596608449
 20
1861.346262794371
 30
-4076.236884463239
 40
8.0
100
AcDbArc
 50
257.0999787101096
 51
270.0868205173124
  0
ARC
  5
142
330
119
100
AcDbEntity
  8
OBJECT
 62
     7
100
AcDbCircle
 10
1970.400698864366
 20
1894.942985542559
 30
-4076.236884463239
 40
8.0
100
AcDbArc
 50
40.91945778151353
 51
63.5359512903749
  0
ARC
  5
143
330
119
100
AcDbEntity
  8
OBJECT
 62
     7
100
AcDbCircle
 10
1920.147618161857
 20
1919.958889023922
 30
-4076.236884463239
 40
8.0
100
AcDbArc
 50
63.5359512903749
 51
86.18873373164749
  0
LINE
  5
144
330
119
100
AcDbEntity
  8
OBJECT
 62
     7
100
AcDbLine
 10
1834.178968055712
 20
2056.868433209844
 30
-4076.236884463239
 11
1826.877072080715
 21
2037.06127563814
 31
-4076.236884463239
  0
LINE
  5
145
330
119
100
AcDbEntity
  8
OBJECT
 62
     7
100
AcDbLine
 10
1826.877072080715
 20
2037.06127563814
 30
-4076.236884463239
 11
1814.81353977259
 21
2037.06127563814
 31
-4076.236884463239
  0
LINE
  5
146
330
119
100
AcDbEntity
  8
OBJECT
 62
     7
100
AcDbLine
 10
1744.845023552414
 20
2033.444463067664
 30
-4076.236884463239
 11
1730.368784782663
 21
2014.154748603103
 31
-4076.236884463239
  0
LINE
  5
147
330
119
100
AcDbEntity
  8
OBJECT
 62
     7
100
AcDbLine
 10
1730.368784782663
 20
2014.154748603103
 30
-4076.236884463239
 11
1630.241416167384
 21
2014.154748603103
 31
-4076.236884463239
  0
LINE
  5
148
330
119
100
AcDbEntity
  8
OBJECT
 62
     7
100
AcDbLine
 10
1630.241416167384
 20
2014.154748603103
 30
-4076.236884463239
 11
1630.241416167384
 21
1991.248221568064
 31
-4076.236884463239
  0
LINE
  5
149
330
119
100
AcDbEntity
  8
OBJECT
 62
     7
100
AcDbLine
 10
1869.193234649737
 20
1931.371070990029
 30
-4076.236884463239
 11
1838.390154357687
 21
1945.60695681165
 31
-4076.236884463239
  0
LINE
  5
14A
330
119
100
AcDbEntity
  8
OBJECT
 62
     7
100
AcDbLine
 10
1834.244340341415
 20
1950.090396771933
 30
-4076.236884463239
 11
1826.91243889821
 21
1969.886467016481
 31
-4076.236884463239
  0
LINE
  5
14B
330
119
100
AcDbEntity
  8
OBJECT
 62
     7
100
AcDbLine
 10
1826.91243889821
 20
1969.886467016481
 30
-4076.236884463239
 11
1814.848920439894
 21
1969.86818710611
 31
-4076.236884463239
  0
LINE
  5
14C
330
119
100
AcDbEntity
  8
OBJECT
 62
     7
100
AcDbLine
 10
1814.848920439894
 20
1969.86818710611
 30
-4076.236884463239
 11
1814.93843659114
 21
1910.793513272113
 31
-4076.236884463239
  0
LINE
  5
14D
330
119
100
AcDbEntity
  8
OBJECT
 62
     7
100
AcDbLine
 10
1814.93843659114
 20
1910.793513272113
 30
-4076.236884463239
 11
1744.970000699913
 21
1910.687489748267
 31
-4076.236884463239
  0
LINE
  5
14E
330
119
100
AcDbEntity
  8
OBJECT
 62
     7
100
AcDbLine
 10
1744.970000699913
 20
1910.687489748267
 30
-4076.236884463239
 11
1744.875003980621
 21
1973.378972000375
 31
-4076.236884463239
  0
LINE
  5
14F
330
119
100
AcDbEntity
  8
OBJECT
 62
     7
100
AcDbLine
 10
1744.875003980621
 20
1973.378972000375
 30
-4076.236884463239
 11
1730.369552062573
 21
1992.646728426499
 31
-4076.236884463239
  0
LINE
  5
150
330
119
100
AcDbEntity
  8
OBJECT
 62
     7
100
AcDbLine
 10
1730.369552062573
 20
1992.646728426499
 30
-4076.236884463239
 11
1630.242298400798
 21
1992.495005093958
 31
-4076.236884463239
  0
LINE
  5
151
330
119
100
AcDbEntity
  8
OBJECT
 62
     0
100
AcDbLine
 10
1730.368784782663
 20
2014.154748603103
 30
-4076.236884463239
 11
1730.369552062573
 21
1992.646728426499
 31
-4076.236884463239
  0
LINE
  5
152
330
119
100
AcDbEntity
  8
OBJECT
 62
     0
100
AcDbLine
 10
1814.81353977259
 20
2037.06127563814
 30
-4076.236884463239
 11
1814.848920439894
 21
1969.86818710611
 31
-4076.236884463239
  0
LINE
  5
153
330
119
100
AcDbEntity
  8
OBJECT
 62
     0
100
AcDbLine
 10
1826.877072080715
 20
2037.06127563814
 30
-4076.236884463239
 11
1826.91243889821
 21
1969.886467016481
 31
-4076.236884463239
  0
ARC
  5
154
330
119
100
AcDbEntity
  8
OBJECT
 62
     7
100
AcDbCircle
 10
1841.746327517449
 20
1952.868919474848
 30
-4076.236884463239
 40
8.0
100
AcDbArc
 50
200.3231968315975
 51
245.1956093759787
  0
ARC
  5
155
330
119
100
AcDbEntity
  8
OBJECT
 62
     7
100
AcDbCircle
 10
1841.685156923556
 20
2054.101281482834
 30
-4076.236884463239
 40
8.0
100
AcDbArc
 50
114.8912111413425
 51
159.7636236856336
  0
LINE
  5
156
330
119
100
AcDbEntity
  8
OBJECT
 62
     7
100
AcDbLine
 10
1920.679378964182
 20
1927.941196362598
 30
-4076.236884463239
 11
1869.193234649737
 21
1931.371070990029
 31
-4076.236884463239
  0
LINE
  5
157
330
119
100
AcDbEntity
  8
OBJECT
 62
     7
100
AcDbLine
 10
1867.75492604249
 20
2075.016835949302
 30
-4076.236884463239
 11
1838.317983540903
 21
2061.358150188493
 31
-4076.236884463239
  0
LINE
  5
158
330
119
100
AcDbEntity
  8
OBJECT
 62
     7
100
AcDbLine
 10
1814.81353977259
 20
2037.06127563814
 30
-4076.236884463239
 11
1814.81353977259
 21
2096.136017294236
 31
-4076.236884463239
  0
LINE
  5
159
330
119
100
AcDbEntity
  8
OBJECT
 62
     7
100
AcDbLine
 10
1744.845023552414
 20
2096.136017294236
 30
-4076.236884463239
 11
1744.845023552414
 21
2033.444463067664
 31
-4076.236884463239
  0
LINE
  5
15A
330
119
100
AcDbEntity
  8
OBJECT
 62
     7
100
AcDbLine
 10
2239.768990468899
 20
2100.838999412372
 30
-4076.236884463239
 11
2193.574965828369
 21
2151.40112014197
 31
-4076.236884463239
  0
LINE
  5
15B
330
119
100
AcDbEntity
  8
OBJECT
 62
     7
100
AcDbLine
 10
2239.900525852041
 20
1906.734472952084
 30
-4076.236884463239
 11
2193.783171194242
 21
1856.102412313287
 31
-4076.236884463239
  0
ENDBLK
  5
11B
330
119
100
AcDbEntity
  8
0
100
AcDbBlockEnd
  0
BLOCK
  5
2C7
330
2C6
100
AcDbEntity
  8
0
100
AcDbBlockBegin
  2
AAKK
 70
     0
 10
0.0
 20
0.0
 30
0.0
  3
AAKK
  1

  0
INSERT
  5
2C9
330
2C6
100
AcDbEntity
  8
HATCH
  6
CONTINUOUS
 62
     2
100
AcDbBlockReference
  2
*U2
 10
0.0
 20
0.0
 30
0.0
1001
ACAD
1002
{
1000
R14_HATCH_DATA
1000
2C9
1011
1.0
1021
0.0
1031
0.0
1011
0.0
1021
1.0
1031
0.0
1011
0.0
1021
0.0
1031
1.0
1040
0.0
1010
0.0
1020
0.0
1030
1.0
1000
SOLID
1070
     1
1070
     1
1071
        3
1071
        7
1070
     0
1070
     1
1071
        4
1040
1730.368784782663
1040
2014.154748603103
1040
1730.368784782663
1040
2033.444463067664
1040
1630.241416167384
1040
2033.444463067664
1040
1630.241416167384
1040
2014.154748603103
1071
        4
1005
30D
1005
310
1005
2F7
1005
312
1071
        7
1070
     0
1070
     1
1071
        4
1040
1730.369552062573
1040
1992.646728426498
1040
1630.241416167384
1040
1992.646728426499
1040
1630.241416167384
1040
1973.378972000375
1040
1730.369552062573
1040
1973.378972000375
1071
        4
1005
30B
1005
30F
1005
30E
1005
311
1071
        7
1070
     0
1070
     1
1071
        6
1040
1780.110212064571
1040
1910.740737887804
1040
1814.93843659114
1040
1910.793513272112
1040
1814.848920439894
1040
1969.86818710611
1040
1814.81353977259
1040
2037.06127563814
1040
1814.813539772589
1040
2096.136017294236
1040
1779.829281662501
1040
2096.136017294236
1071
        6
1005
307
1005
2E9
1005
30C
1005
2FD
1005
2FC
1005
301
1070
     0
1070
     1
1040
1.002140052958764
1071
        3
1040
1686.811890317356
1040
2022.956732521628
1040
0.0
1040
1677.783291702067
1040
1977.860427052575
1040
0.0
1040
1791.142571291006
1040
2002.913937654573
1040
0.0
1002
}
  0
INSERT
  5
2CA
330
2C6
100
AcDbEntity
  8
HATCH
  6
CONTINUOUS
 62
     1
100
AcDbBlockReference
  2
*U3
 10
0.0
 20
0.0
 30
0.0
1001
ACAD
1002
{
1000
R14_HATCH_DATA
1000
2CA
1011
1.0
1021
0.0
1031
0.0
1011
0.0
1021
1.0
1031
0.0
1011
0.0
1021
0.0
1031
1.0
1040
0.0
1010
0.0
1020
0.0
1030
1.0
1000
SOLID
1070
     1
1070
     1
1071
        1
1071
        7
1070
     0
1070
     1
1071
        8
1040
1744.875003980621
1040
1973.378972000374
1040
1744.970000699912
1040
1910.687489748266
1040
1780.110212064571
1040
1910.740737887805
1040
1779.829281662501
1040
2096.136017294236
1040
1744.845023552414
1040
2096.136017294236
1040
1744.845023552414
1040
2033.444463067664
1040
1730.368784782662
1040
2014.154748603103
1040
1730.369552062573
1040
1992.646728426499
1071
        8
1005
2E9
1005
308
1005
2F6
1005
300
1005
2FF
1005
2FE
1005
2FD
1005
30C
1070
     0
1070
     1
1040
1.742510383982493
1071
        2
1040
1756.089291166746
1040
1990.476061966398
1040
0.0
1040
1759.577932814885
1040
2004.416149838122
1040
0.0
1002
}
  0
INSERT
  5
2CB
330
2C6
100
AcDbEntity
  8
HATCH
  6
CONTINUOUS
 62
     5
100
AcDbBlockReference
  2
*U4
 10
0.0
 20
0.0
 30
0.0
1001
ACAD
1002
{
1000
R14_HATCH_DATA
1000
2CB
1011
1.0
1021
0.0
1031
0.0
1011
0.0
1021
1.0
1031
0.0
1011
0.0
1021
0.0
1031
1.0
1040
0.0
1010
0.0
1020
0.0
1030
1.0
1000
SOLID
1070
     1
1070
     0
1071
        3
1071
        7
1070
     0
1070
     1
1071
        4
1040
1730.368784782663
1040
2014.154748603103
1040
1630.241416167383
1040
2014.154748603103
1040
1630.241416167384
1040
1992.646728426499
1040
1730.369552062573
1040
1992.646728426499
1071
        0
1071
        7
1070
     0
1070
     1
1071
        4
1040
1826.877072080715
1040
2037.06127563814
1040
1814.813539772589
1040
2037.061275638139
1040
1814.848920439894
1040
1969.86818710611
1040
1826.91243889821
1040
1969.886467016481
1071
        0
1071
        7
1070
     0
1070
     1
1071
       12
1040
2398.688748566784
1040
2014.154748603103
1040
2292.529621005703
1040
2014.154748603103
1040
2292.529621005702
1040
2020.182784373277
1040
2270.815248434553
1040
2020.182784373278
1040
2270.815248434553
1040
2040.678097100247
1040
2241.862770895049
1040
2040.678097100247
1040
2241.862770895049
1040
1966.898417733187
1040
2270.85558616025
1040
1966.942350692406
1040
2270.824529545147
1040
1987.437639889266
1040
2292.538877186624
1040
1987.470543749781
1040
2292.5297428841
1040
1993.498572599331
1040
2398.688748566783
1040
1993.659435876134
1071
        0
1070
     0
1070
     1
1040
1.742510383982493
1071
        3
1040
1677.594991940679
1040
2002.673636925353
1040
0.0
1040
1822.37337525923
1040
2002.673636925353
1040
0.0
1040
2267.174404206944
1040
2006.158655035674
1040
0.0
1002
}
  0
INSERT
  5
2CC
330
2C6
100
AcDbEntity
  8
HATCH
  6
CONTINUOUS
 62
   251
100
AcDbBlockReference
  2
*U5
 10
0.0
 20
0.0
 30
0.0
1001
ACAD
1002
{
1000
R14_HATCH_DATA
1000
2CC
1011
1.0
1021
0.0
1031
0.0
1011
0.0
1021
1.0
1031
0.0
1011
0.0
1021
0.0
1031
1.0
1040
0.0
1010
0.0
1020
0.0
1030
1.0
1000
SOLID
1070
     1
1070
     0
1071
        1
1071
        7
1070
     1
1070
     1
1071
       34
1040
2091.599592782766
1040
1853.548173904478
1040
0.0567265167416861
1040
2093.397719034879
1040
1853.346271978952
1040
0.0
1040
2187.88090428546
1040
1853.489442826161
1040
0.2106641797331348
1040
2193.783171194242
1040
1856.102412313287
1040
0.0
1040
2239.900525852041
1040
1906.734472952084
1040
0.1872131689409384
1040
2241.986127332243
1040
1912.133616706813
1040
0.0
1040
2241.9026797651
1040
1967.203430839395
1040
-0.1009030037747713
1040
2241.862770895049
1040
1967.399175959747
1040
0.0
1040
2241.862770895049
1040
2040.678097100247
1040
0.0
1040
2241.862770895049
1040
2095.443022175069
1040
0.1872131689409588
1040
2239.768990468897
1040
2100.838999412374
1040
0.0
1040
2193.57496582837
1040
2151.401120141969
1040
0.2106641797331334
1040
2187.668746254521
1040
2154.005142904666
1040
0.0
1040
2093.185452530251
1040
2154.00514290466
1040
0.056726516741835
1040
2091.387634285167
1040
2153.800516504279
1040
0.0
1040
1998.179302938718
1040
2132.304223023659
1040
0.0
1040
1976.304587017754
1040
2106.991285679387
1040
-0.0990046586999385
1040
1973.827542739919
1040
2105.06579643654
1040
0.0
1040
1923.612426412796
1040
2079.97377301601
1040
-0.0991645535851977
1040
1920.580344688181
1040
2079.148583489944
1040
0.0
1040
1870.578243616627
1040
2075.741459639151
1040
0.0918568377906187
1040
1867.754926042483
1040
2075.016835949299
1040
0.0
1040
1838.317983540902
1040
2061.358150188492
1040
0.1983336994284371
1040
1834.178968055712
1040
2056.868433209845
1040
0.0
1040
1826.877072080714
1040
2037.061275638139
1040
0.0
1040
1826.91243889821
1040
1969.886467016481
1040
0.0
1040
1834.244340341413
1040
1950.090396771938
1040
0.1983336994285747
1040
1838.390154357687
1040
1945.606956811649
1040
0.0
1040
1869.193234649736
1040
1931.371070990029
1040
0.0
1040
1920.679378964182
1040
1927.941196362598
1040
-0.0991645535853191
1040
1923.712707620166
1040
1927.120602307365
1040
0.0
1040
1973.965788322671
1040
1902.104698826007
1040
-0.0990046586996434
1040
1976.445747456886
1040
1900.182965267148
1040
0.0
1040
1998.358795041705
1040
1874.903203813291
1040
0.0
1071
        0
1070
     0
1070
     1
1040
2.19882895118481
1071
        1
1040
2073.441106604819
1040
1979.614708809588
1040
0.0
1002
}
  0
ARC
  5
2CD
330
2C6
100
AcDbEntity
  8
OBJECT
 62
     7
100
AcDbCircle
 10
2233.862770895052
 20
2095.443022175069
 30
-4076.236884463239
 40
8.0
100
AcDbArc
 50
0.0
 51
42.41511354214487
  0
LINE
  5
2CE
330
2C6
100
AcDbEntity
  8
OBJECT
 62
     7
100
AcDbLine
 10
2398.688748566784
 20
1993.659435876135
 30
-4076.236884463239
 11
2398.688748566784
 21
2014.154748603103
 31
-4076.236884463239
  0
LINE
  5
2CF
330
2C6
100
AcDbEntity
  8
OBJECT
 62
     7
100
AcDbLine
 10
2398.688748566784
 20
2014.154748603103
 30
-4076.236884463239
 11
2292.529621005703
 21
2014.154748603103
 31
-4076.236884463239
  0
LINE
  5
2D0
330
2C6
100
AcDbEntity
  8
OBJECT
 62
     7
100
AcDbLine
 10
2292.529621005703
 20
2014.154748603103
 30
-4076.236884463239
 11
2292.529621005703
 21
2020.182784373278
 31
-4076.236884463239
  0
LINE
  5
2D1
330
2C6
100
AcDbEntity
  8
OBJECT
 62
     7
100
AcDbLine
 10
2292.529621005703
 20
2020.182784373278
 30
-4076.236884463239
 11
2270.815248434553
 21
2020.182784373278
 31
-4076.236884463239
  0
LINE
  5
2D2
330
2C6
100
AcDbEntity
  8
OBJECT
 62
     7
100
AcDbLine
 10
2270.815248434553
 20
2020.182784373278
 30
-4076.236884463239
 11
2270.815248434553
 21
2040.678097100247
 31
-4076.236884463239
  0
LINE
  5
2D3
330
2C6
100
AcDbEntity
  8
OBJECT
 62
     7
100
AcDbLine
 10
2270.815248434553
 20
2040.678097100247
 30
-4076.236884463239
 11
2241.862770895049
 21
2040.678097100247
 31
-4076.236884463239
  0
LINE
  5
2D4
330
2C6
100
AcDbEntity
  8
OBJECT
 62
     7
100
AcDbLine
 10
2292.538877186624
 20
1987.470543749781
 30
-4076.236884463239
 11
2270.824529545147
 21
1987.437639889266
 31
-4076.236884463239
  0
LINE
  5
2D5
330
2C6
100
AcDbEntity
  8
OBJECT
 62
     7
100
AcDbLine
 10
2292.5297428841
 20
1993.498572599331
 30
-4076.236884463239
 11
2292.538877186624
 21
1987.470543749781
 31
-4076.236884463239
  0
LINE
  5
2D6
330
2C6
100
AcDbEntity
  8
OBJECT
 62
     7
100
AcDbLine
 10
2398.688748566784
 20
1993.659435876135
 30
-4076.236884463239
 11
2292.5297428841
 21
1993.498572599331
 31
-4076.236884463239
  0
LINE
  5
2D7
330
2C6
100
AcDbEntity
  8
OBJECT
 62
     7
100
AcDbLine
 10
2270.824529545147
 20
1987.437639889266
 30
-4076.236884463239
 11
2270.855586160251
 21
1966.942350692406
 31
-4076.236884463239
  0
LINE
  5
2D8
330
2C6
100
AcDbEntity
  8
OBJECT
 62
     7
100
AcDbLine
 10
2270.855586160251
 20
1966.942350692406
 30
-4076.236884463239
 11
2242.363528546703
 21
1966.899176533783
 31
-4076.236884463239
  0
LINE
  5
2D9
330
2C6
100
AcDbEntity
  8
OBJECT
 62
     7
100
AcDbLine
 10
2241.903141860301
 20
1966.898478907514
 30
-4076.236884463239
 11
2241.986127332243
 21
1912.133616706812
 31
-4076.236884463239
  0
LINE
  5
2DA
330
2C6
100
AcDbEntity
  8
OBJECT
 62
     7
100
AcDbLine
 10
2241.862770895049
 20
2040.678097100247
 30
-4076.236884463239
 11
2241.862770895049
 21
1967.399175959747
 31
-4076.236884463239
  0
ARC
  5
2DB
330
2C6
100
AcDbEntity
  8
OBJECT
 62
     7
100
AcDbCircle
 10
2242.362770895049
 20
1967.399175959747
 30
-4076.236884463239
 40
0.5
100
AcDbArc
 50
180.0
 51
270.0868205173124
  0
ARC
  5
2DC
330
2C6
100
AcDbEntity
  8
OBJECT
 62
     7
100
AcDbCircle
 10
2233.986136516825
 20
1912.121494280375
 30
-4076.236884463239
 40
8.0
100
AcDbArc
 50
317.6717069752301
 51
0.0868205173125561
  0
LINE
  5
2DD
330
2C6
100
AcDbEntity
  8
OBJECT
 62
     7
100
AcDbLine
 10
2241.862770895049
 20
2040.678097100247
 30
-4076.236884463239
 11
2241.862770895049
 21
2095.443022175069
 31
-4076.236884463239
  0
LINE
  5
2DE
330
2C6
100
AcDbEntity
  8
OBJECT
 62
     7
100
AcDbLine
 10
2187.668746254523
 20
2154.005142904666
 30
-4076.236884463239
 11
2093.185452530252
 21
2154.00514290466
 31
-4076.236884463239
  0
LINE
  5
2DF
330
2C6
100
AcDbEntity
  8
OBJECT
 62
     7
100
AcDbLine
 10
2091.38763428517
 20
2153.80051650428
 30
-4076.236884463239
 11
1998.179302938718
 21
2132.304223023659
 31
-4076.236884463239
  0
LINE
  5
2E0
330
2C6
100
AcDbEntity
  8
OBJECT
 62
     7
100
AcDbLine
 10
1998.179302938718
 20
2132.304223023659
 30
-4076.236884463239
 11
1976.304587017753
 21
2106.991285679386
 31
-4076.236884463239
  0
LINE
  5
2E1
330
2C6
100
AcDbEntity
  8
OBJECT
 62
     7
100
AcDbLine
 10
1973.827542739917
 20
2105.06579643654
 30
-4076.236884463239
 11
1923.612426412798
 21
2079.973773016011
 31
-4076.236884463239
  0
ARC
  5
2E2
330
2C6
100
AcDbEntity
  8
OBJECT
 62
     7
100
AcDbCircle
 10
2187.668746254523
 20
2146.005142904666
 30
-4076.236884463239
 40
8.0
100
AcDbArc
 50
42.41511354214487
 51
90.0
  0
ARC
  5
2E3
330
2C6
100
AcDbEntity
  8
OBJECT
 62
     7
100
AcDbCircle
 10
2093.185452530263
 20
2146.005142904662
 30
-4076.236884463239
 40
8.0
100
AcDbArc
 50
90.0
 51
102.9868418070314
  0
ARC
  5
2E4
330
2C6
100
AcDbEntity
  8
OBJECT
 62
     7
100
AcDbCircle
 10
2093.185452530252
 20
2146.00514290466
 30
-4076.236884463239
 40
8.0
100
AcDbArc
 50
90.0
 51
102.9868418070314
  0
ARC
  5
2E5
330
2C6
100
AcDbEntity
  8
OBJECT
 62
     7
100
AcDbCircle
 10
2093.185452530252
 20
2146.00514290466
 30
-4076.236884463239
 40
8.0
100
AcDbArc
 50
90.0
 51
102.9868418070314
  0
ARC
  5
2E6
330
2C6
100
AcDbEntity
  8
OBJECT
 62
     7
100
AcDbCircle
 10
2093.185452530252
 20
2146.00514290466
 30
-4076.236884463239
 40
8.0
100
AcDbArc
 50
90.0
 51
102.9868418070314
  0
ARC
  5
2E7
330
2C6
100
AcDbEntity
  8
OBJECT
 62
     7
100
AcDbCircle
 10
1970.251605206792
 20
2112.222099305982
 30
-4076.236884463239
 40
8.0
100
AcDbArc
 50
296.5508692269695
 51
319.1673627358099
  0
ARC
  5
2E8
330
2C6
100
AcDbEntity
  8
OBJECT
 62
     7
100
AcDbCircle
 10
1920.036488879672
 20
2087.13007588545
 30
-4076.236884463239
 40
8.0
100
AcDbArc
 50
273.8980867855705
 51
296.5508692269695
  0
LINE
  5
2E9
330
2C6
100
AcDbEntity
  8
OBJECT
 62
     7
100
AcDbLine
 10
1814.81353977259
 20
2096.136017294236
 30
-4076.236884463239
 11
1744.845023552414
 21
2096.136017294236
 31
-4076.236884463239
  0
ARC
  5
2EA
330
2C6
100
AcDbEntity
  8
OBJECT
 62
     7
100
AcDbCircle
 10
1871.122099425139
 20
2067.759967243645
 30
-4076.236884463239
 40
8.0
100
AcDbArc
 50
93.89808678557052
 51
114.8912111413425
  0
LINE
  5
2EB
330
2C6
100
AcDbEntity
  8
OBJECT
 62
     7
100
AcDbLine
 10
1920.580344688185
 20
2079.148583489945
 30
-4076.236884463239
 11
1870.578243616627
 21
2075.741459639151
 31
-4076.236884463239
  0
LINE
  5
2EC
330
2C6
100
AcDbEntity
  8
OBJECT
 62
     7
100
AcDbLine
 10
2187.88090428546
 20
1853.489442826161
 30
-4076.236884463239
 11
2093.397719034885
 21
1853.346271978952
 31
-4076.236884463239
  0
LINE
  5
2ED
330
2C6
100
AcDbEntity
  8
OBJECT
 62
     7
100
AcDbLine
 10
2091.599592782765
 20
1853.548173904479
 30
-4076.236884463239
 11
1998.358795041706
 21
1874.903203813291
 31
-4076.236884463239
  0
LINE
  5
2EE
330
2C6
100
AcDbEntity
  8
OBJECT
 62
     7
100
AcDbLine
 10
1998.358795041706
 20
1874.903203813291
 30
-4076.236884463239
 11
1976.445747456892
 21
1900.182965267141
 31
-4076.236884463239
  0
LINE
  5
2EF
330
2C6
100
AcDbEntity
  8
OBJECT
 62
     7
100
AcDbLine
 10
1973.965788322672
 20
1902.104698826007
 30
-4076.236884463239
 11
1923.712707620162
 21
1927.120602307367
 31
-4076.236884463239
  0
ARC
  5
2F0
330
2C6
100
AcDbEntity
  8
OBJECT
 62
     7
100
AcDbCircle
 10
2187.868781859023
 20
1861.489433641579
 30
-4076.236884463239
 40
8.0
100
AcDbArc
 50
270.0868205173124
 51
317.6717069752301
  0
ARC
  5
2F1
330
2C6
100
AcDbEntity
  8
OBJECT
 62
     7
100
AcDbCircle
 10
2093.385596608449
 20
1861.346262794371
 30
-4076.236884463239
 40
8.0
100
AcDbArc
 50
257.0999787101096
 51
270.0868205173124
  0
ARC
  5
2F2
330
2C6
100
AcDbEntity
  8
OBJECT
 62
     7
100
AcDbCircle
 10
1970.400698864366
 20
1894.942985542559
 30
-4076.236884463239
 40
8.0
100
AcDbArc
 50
40.91945778151353
 51
63.5359512903749
  0
ARC
  5
2F3
330
2C6
100
AcDbEntity
  8
OBJECT
 62
     7
100
AcDbCircle
 10
1920.147618161857
 20
1919.958889023922
 30
-4076.236884463239
 40
8.0
100
AcDbArc
 50
63.5359512903749
 51
86.18873373164749
  0
LINE
  5
2F4
330
2C6
100
AcDbEntity
  8
OBJECT
 62
     7
100
AcDbLine
 10
1834.178968055712
 20
2056.868433209844
 30
-4076.236884463239
 11
1826.877072080715
 21
2037.06127563814
 31
-4076.236884463239
  0
LINE
  5
2F5
330
2C6
100
AcDbEntity
  8
OBJECT
 62
     7
100
AcDbLine
 10
1826.877072080715
 20
2037.06127563814
 30
-4076.236884463239
 11
1814.81353977259
 21
2037.06127563814
 31
-4076.236884463239
  0
LINE
  5
2F6
330
2C6
100
AcDbEntity
  8
OBJECT
 62
     7
100
AcDbLine
 10
1744.845023552414
 20
2033.444463067664
 30
-4076.236884463239
 11
1730.368784782663
 21
2014.154748603103
 31
-4076.236884463239
  0
LINE
  5
2F7
330
2C6
100
AcDbEntity
  8
OBJECT
 62
     7
100
AcDbLine
 10
1730.368784782663
 20
2014.154748603103
 30
-4076.236884463239
 11
1630.241416167384
 21
2014.154748603103
 31
-4076.236884463239
  0
LINE
  5
2F8
330
2C6
100
AcDbEntity
  8
OBJECT
 62
     7
100
AcDbLine
 10
1630.241416167384
 20
2014.154748603103
 30
-4076.236884463239
 11
1630.241416167384
 21
1992.646728426499
 31
-4076.236884463239
  0
LINE
  5
2F9
330
2C6
100
AcDbEntity
  8
OBJECT
 62
     7
100
AcDbLine
 10
1869.193234649737
 20
1931.371070990029
 30
-4076.236884463239
 11
1838.390154357687
 21
1945.60695681165
 31
-4076.236884463239
  0
LINE
  5
2FA
330
2C6
100
AcDbEntity
  8
OBJECT
 62
     7
100
AcDbLine
 10
1834.244340341415
 20
1950.090396771933
 30
-4076.236884463239
 11
1826.91243889821
 21
1969.886467016481
 31
-4076.236884463239
  0
LINE
  5
2FB
330
2C6
100
AcDbEntity
  8
OBJECT
 62
     7
100
AcDbLine
 10
1826.91243889821
 20
1969.886467016481
 30
-4076.236884463239
 11
1814.848920439894
 21
1969.86818710611
 31
-4076.236884463239
  0
LINE
  5
2FC
330
2C6
100
AcDbEntity
  8
OBJECT
 62
     7
100
AcDbLine
 10
1814.848920439894
 20
1969.86818710611
 30
-4076.236884463239
 11
1814.93843659114
 21
1910.793513272113
 31
-4076.236884463239
  0
LINE
  5
2FD
330
2C6
100
AcDbEntity
  8
OBJECT
 62
     7
100
AcDbLine
 10
1814.93843659114
 20
1910.793513272113
 30
-4076.236884463239
 11
1744.970000699913
 21
1910.687489748267
 31
-4076.236884463239
  0
LINE
  5
2FE
330
2C6
100
AcDbEntity
  8
OBJECT
 62
     7
100
AcDbLine
 10
1744.970000699913
 20
1910.687489748267
 30
-4076.236884463239
 11
1744.875003980621
 21
1973.378972000375
 31
-4076.236884463239
  0
LINE
  5
2FF
330
2C6
100
AcDbEntity
  8
OBJECT
 62
     7
100
AcDbLine
 10
1744.875003980621
 20
1973.378972000375
 30
-4076.236884463239
 11
1730.369552062573
 21
1992.646728426499
 31
-4076.236884463239
  0
LINE
  5
300
330
2C6
100
AcDbEntity
  8
OBJECT
 62
     0
100
AcDbLine
 10
1730.368784782663
 20
2014.154748603103
 30
-4076.236884463239
 11
1730.369552062573
 21
1992.646728426499
 31
-4076.236884463239
  0
LINE
  5
301
330
2C6
100
AcDbEntity
  8
OBJECT
 62
     0
100
AcDbLine
 10
1814.81353977259
 20
2037.06127563814
 30
-4076.236884463239
 11
1814.848920439894
 21
1969.86818710611
 31
-4076.236884463239
  0
LINE
  5
302
330
2C6
100
AcDbEntity
  8
OBJECT
 62
     0
100
AcDbLine
 10
1826.877072080715
 20
2037.06127563814
 30
-4076.236884463239
 11
1826.91243889821
 21
1969.886467016481
 31
-4076.236884463239
  0
ARC
  5
303
330
2C6
100
AcDbEntity
  8
OBJECT
 62
     7
100
AcDbCircle
 10
1841.746327517449
 20
1952.868919474848
 30
-4076.236884463239
 40
8.0
100
AcDbArc
 50
200.3231968315975
 51
245.1956093759787
  0
ARC
  5
304
330
2C6
100
AcDbEntity
  8
OBJECT
 62
     7
100
AcDbCircle
 10
1841.685156923556
 20
2054.101281482834
 30
-4076.236884463239
 40
8.0
100
AcDbArc
 50
114.8912111413425
 51
159.7636236856336
  0
LINE
  5
305
330
2C6
100
AcDbEntity
  8
OBJECT
 62
     7
100
AcDbLine
 10
1920.679378964182
 20
1927.941196362598
 30
-4076.236884463239
 11
1869.193234649737
 21
1931.371070990029
 31
-4076.236884463239
  0
LINE
  5
306
330
2C6
100
AcDbEntity
  8
OBJECT
 62
     7
100
AcDbLine
 10
1867.75492604249
 20
2075.016835949302
 30
-4076.236884463239
 11
1838.317983540903
 21
2061.358150188493
 31
-4076.236884463239
  0
LINE
  5
307
330
2C6
100
AcDbEntity
  8
OBJECT
 62
     7
100
AcDbLine
 10
1814.81353977259
 20
2037.06127563814
 30
-4076.236884463239
 11
1814.81353977259
 21
2096.136017294236
 31
-4076.236884463239
  0
LINE
  5
308
330
2C6
100
AcDbEntity
  8
OBJECT
 62
     7
100
AcDbLine
 10
1744.845023552414
 20
2096.136017294236
 30
-4076.236884463239
 11
1744.845023552414
 21
2033.444463067664
 31
-4076.236884463239
  0
LINE
  5
309
330
2C6
100
AcDbEntity
  8
OBJECT
 62
     7
100
AcDbLine
 10
2239.768990468899
 20
2100.838999412372
 30
-4076.236884463239
 11
2193.574965828369
 21
2151.40112014197
 31
-4076.236884463239
  0
LINE
  5
30A
330
2C6
100
AcDbEntity
  8
OBJECT
 62
     7
100
AcDbLine
 10
2239.900525852041
 20
1906.734472952084
 30
-4076.236884463239
 11
2193.783171194242
 21
1856.102412313287
 31
-4076.236884463239
  0
LINE
  5
30B
330
2C6
100
AcDbEntity
  8
OBJECT
100
AcDbLine
 10
1730.369552062573
 20
1992.646728426499
 30
-4076.236884463239
 11
1630.241416167384
 21
1992.646728426499
 31
-4076.236884463239
  0
LINE
  5
30C
330
2C6
100
AcDbEntity
  8
OBJECT
100
AcDbLine
 10
1779.829281662501
 20
2096.136017294236
 30
-4076.236884463239
 11
1780.110212064571
 21
1910.740737887804
 31
-4076.236884463239
  0
LINE
  5
30D
330
2C6
100
AcDbEntity
  8
OBJECT
100
AcDbLine
 10
1730.368784782663
 20
2033.444463067664
 30
-4076.236884463239
 11
1630.241416167383
 21
2033.444463067664
 31
-4076.236884463239
  0
LINE
  5
30E
330
2C6
100
AcDbEntity
  8
OBJECT
100
AcDbLine
 10
1730.369552062573
 20
1973.378972000374
 30
-4076.236884463239
 11
1630.241416167384
 21
1973.378972000374
 31
-4076.236884463239
  0
LINE
  5
30F
330
2C6
100
AcDbEntity
  8
OBJECT
100
AcDbLine
 10
1630.241416167384
 20
1992.646728426499
 30
-4076.236884463239
 11
1630.241416167384
 21
1973.378972000375
 31
-4076.236884463239
  0
LINE
  5
310
330
2C6
100
AcDbEntity
  8
OBJECT
100
AcDbLine
 10
1630.241416167384
 20
2014.154748603103
 30
-4076.236884463239
 11
1630.241416167384
 21
2033.444463067664
 31
-4076.236884463239
  0
LINE
  5
311
330
2C6
100
AcDbEntity
  8
OBJECT
100
AcDbLine
 10
1730.369552062573
 20
1992.646728426499
 30
-4076.236884463239
 11
1730.369552062573
 21
1973.378972000375
 31
-4076.236884463239
  0
LINE
  5
312
330
2C6
100
AcDbEntity
  8
OBJECT
100
AcDbLine
 10
1730.368784782663
 20
2014.154748603103
 30
-4076.236884463239
 11
1730.368784782663
 21
2033.444463067664
 31
-4076.236884463239
  0
MTEXT
  5
313
330
2C6
100
AcDbEntity
  8
TEKST
100
AcDbMText
 10
1592.579278392855
 20
2817.848322644163
 30
0.0
 40
75.18097186823435
 41
868.6785999999997
 71
     1
 72
     1
  1
{\FIMPACT.TTF;Hoogte: 84 cm\PMax. valhoogte: 50 cm}
1001
ACAD
1000
MTEXTBEGIN
1070
    73
1070
     1
1070
    44
1040
1.0
1070
    74
1070
     0
1000
MTEXTEND
1000
MTEXTBEGIN
1070
    73
1070
     1
1070
    44
1040
1.0
1070
    74
1070
     0
1000
MTEXTEND
  0
POLYLINE
  5
314
330
2C6
100
AcDbEntity
  8
SAFETY
  6
DASHED
 48
5.0
100
AcDb2dPolyline
 66
     1
 10
0.0
 20
0.0
 30
-4076.236884463239
 70
     1
  0
VERTEX
  5
379
330
314
100
AcDbEntity
  8
SAFETY
  6
DASHED
 48
5.0
100
AcDbVertex
100
AcDb2dVertex
 10
2986.379335290186
 20
613.9015373212944
 30
-4076.236884463239
 42
0.6681340994008354
  0
VERTEX
  5
37A
330
314
100
AcDbEntity
  8
SAFETY
  6
DASHED
 48
5.0
100
AcDbVertex
100
AcDb2dVertex
 10
2986.379335290186
 20
3385.469428140364
 30
-4076.236884463239
  0
VERTEX
  5
37B
330
314
100
AcDbEntity
  8
SAFETY
  6
DASHED
 48
5.0
100
AcDbVertex
100
AcDb2dVertex
 10
2636.379335290186
 20
3530.469428140363
 30
-4076.236884463239
 42
0.1872763773951654
  0
VERTEX
  5
37C
330
314
100
AcDbEntity
  8
SAFETY
  6
DASHED
 48
5.0
100
AcDbVertex
100
AcDb2dVertex
 10
1551.069858188419
 20
3554.889580474554
 30
-4076.236884463239
  0
VERTEX
  5
37D
330
314
100
AcDbEntity
  8
SAFETY
  6
DASHED
 48
5.0
100
AcDbVertex
100
AcDb2dVertex
 10
1151.069858188421
 20
3409.889580474553
 30
-4076.236884463239
 42
0.7011758199752413
  0
VERTEX
  5
37E
330
314
100
AcDbEntity
  8
SAFETY
  6
DASHED
 48
5.0
100
AcDbVertex
100
AcDb2dVertex
 10
1151.069858188421
 20
589.4813849871054
 30
-4076.236884463239
  0
VERTEX
  5
37F
330
314
100
AcDbEntity
  8
SAFETY
  6
DASHED
 48
5.0
100
AcDbVertex
100
AcDb2dVertex
 10
1551.069858188419
 20
444.4813849871054
 30
-4076.236884463239
 42
0.187276377395165
  0
VERTEX
  5
380
330
314
100
AcDbEntity
  8
SAFETY
  6
DASHED
 48
5.0
100
AcDbVertex
100
AcDb2dVertex
 10
2636.379335290186
 20
468.9015373212944
 30
-4076.236884463239
  0
SEQEND
  5
381
330
314
100
AcDbEntity
  8
SAFETY
  6
DASHED
 48
5.0
  0
ENDBLK
  5
2C8
330
2C6
100
AcDbEntity
  8
0
100
AcDbBlockEnd
  0
BLOCK
  5
32C
330
323
100
AcDbEntity
  8
0
100
AcDbBlockBegin
  2
*U2
 70
     1
 10
0.0
 20
0.0
 30
0.0
  3
*U2
  1

  0
SOLID
  5
324
330
323
100
AcDbEntity
  8
HATCH
  6
CONTINUOUS
 62
     2
100
AcDbTrace
 10
1814.848920439894
 20
1969.86818710611
 30
0.0
 11
1780.110212064571
 21
1910.740737887804
 31
0.0
 12
1814.93843659114
 22
1910.793513272112
 32
0.0
 13
1814.93843659114
 23
1910.793513272112
 33
0.0
210
0.0
220
0.0
230
1.0
  0
SOLID
  5
325
330
323
100
AcDbEntity
  8
HATCH
  6
CONTINUOUS
 62
     2
100
AcDbTrace
 10
1730.369552062573
 20
1992.646728426498
 30
0.0
 11
1630.241416167384
 21
1973.378972000375
 31
0.0
 12
1730.369552062573
 22
1973.378972000375
 32
0.0
 13
1730.369552062573
 23
1973.378972000375
 33
0.0
  0
SOLID
  5
326
330
323
100
AcDbEntity
  8
HATCH
  6
CONTINUOUS
 62
     2
100
AcDbTrace
 10
1630.241416167384
 20
1992.646728426499
 30
0.0
 11
1630.241416167384
 21
1973.378972000375
 31
0.0
 12
1730.369552062573
 22
1992.646728426498
 32
0.0
 13
1730.369552062573
 23
1992.646728426498
 33
0.0
210
0.0
220
0.0
230
1.0
  0
SOLID
  5
327
330
323
100
AcDbEntity
  8
HATCH
  6
CONTINUOUS
 62
     2
100
AcDbTrace
 10
1730.368784782663
 20
2014.154748603103
 30
0.0
 11
1730.368784782663
 21
2033.444463067664
 31
0.0
 12
1630.241416167384
 22
2033.444463067664
 32
0.0
 13
1630.241416167384
 23
2033.444463067664
 33
0.0
210
0.0
220
0.0
230
1.0
  0
SOLID
  5
328
330
323
100
AcDbEntity
  8
HATCH
  6
CONTINUOUS
 62
     2
100
AcDbTrace
 10
1630.241416167384
 20
2033.444463067664
 30
0.0
 11
1630.241416167384
 21
2014.154748603103
 31
0.0
 12
1730.368784782663
 22
2014.154748603103
 32
0.0
 13
1730.368784782663
 23
2014.154748603103
 33
0.0
210
0.0
220
0.0
230
1.0
  0
SOLID
  5
329
330
323
100
AcDbEntity
  8
HATCH
  6
CONTINUOUS
 62
     2
100
AcDbTrace
 10
1814.81353977259
 20
2037.06127563814
 30
0.0
 11
1780.110212064571
 21
1910.740737887804
 31
0.0
 12
1814.848920439894
 22
1969.86818710611
 32
0.0
 13
1814.848920439894
 23
1969.86818710611
 33
0.0
210
0.0
220
0.0
230
1.0
  0
SOLID
  5
32A
330
323
100
AcDbEntity
  8
HATCH
  6
CONTINUOUS
 62
     2
100
AcDbTrace
 10
1814.81353977259
 20
2037.06127563814
 30
0.0
 11
1814.813539772589
 21
2096.136017294236
 31
0.0
 12
1779.829281662501
 22
2096.136017294236
 32
0.0
 13
1779.829281662501
 23
2096.136017294236
 33
0.0
210
0.0
220
0.0
230
1.0
  0
SOLID
  5
32B
330
323
100
AcDbEntity
  8
HATCH
  6
CONTINUOUS
 62
     2
100
AcDbTrace
 10
1779.829281662501
 20
2096.136017294236
 30
0.0
 11
1780.110212064571
 21
1910.740737887804
 31
0.0
 12
1814.81353977259
 22
2037.06127563814
 32
0.0
 13
1814.81353977259
 23
2037.06127563814
 33
0.0
210
0.0
220
0.0
230
1.0
  0
ENDBLK
  5
32D
330
323
100
AcDbEntity
  8
0
100
AcDbBlockEnd
  0
BLOCK
  5
335
330
32E
100
AcDbEntity
  8
0
100
AcDbBlockBegin
  2
*U3
 70
     1
 10
0.0
 20
0.0
 30
0.0
  3
*U3
  1

  0
SOLID
  5
32F
330
32E
100
AcDbEntity
  8
HATCH
  6
CONTINUOUS
 62
     1
100
AcDbTrace
 10
1744.875003980621
 20
1973.378972000374
 30
0.0
 11
1744.970000699912
 21
1910.687489748266
 31
0.0
 12
1780.110212064571
 22
1910.740737887805
 32
0.0
 13
1780.110212064571
 23
1910.740737887805
 33
0.0
210
0.0
220
0.0
230
1.0
  0
SOLID
  5
330
330
32E
100
AcDbEntity
  8
HATCH
  6
CONTINUOUS
 62
     1
100
AcDbTrace
 10
1730.368784782662
 20
2014.154748603103
 30
0.0
 11
1730.369552062573
 21
1992.646728426499
 31
0.0
 12
1744.875003980621
 22
1973.378972000374
 32
0.0
 13
1744.875003980621
 23
1973.378972000374
 33
0.0
  0
SOLID
  5
331
330
32E
100
AcDbEntity
  8
HATCH
  6
CONTINUOUS
 62
     1
100
AcDbTrace
 10
1730.368784782662
 20
2014.154748603103
 30
0.0
 11
1744.875003980621
 21
1973.378972000374
 31
0.0
 12
1780.110212064571
 22
1910.740737887805
 32
0.0
 13
1780.110212064571
 23
1910.740737887805
 33
0.0
210
0.0
220
0.0
230
1.0
  0
SOLID
  5
332
330
32E
100
AcDbEntity
  8
HATCH
  6
CONTINUOUS
 62
     1
100
AcDbTrace
 10
1744.845023552414
 20
2033.444463067664
 30
0.0
 11
1730.368784782662
 21
2014.154748603103
 31
0.0
 12
1780.110212064571
 22
1910.740737887805
 32
0.0
 13
1780.110212064571
 23
1910.740737887805
 33
0.0
  0
SOLID
  5
333
330
32E
100
AcDbEntity
  8
HATCH
  6
CONTINUOUS
 62
     1
100
AcDbTrace
 10
1744.845023552414
 20
2033.444463067664
 30
0.0
 11
1779.829281662501
 21
2096.136017294236
 31
0.0
 12
1744.845023552414
 22
2096.136017294236
 32
0.0
 13
1744.845023552414
 23
2096.136017294236
 33
0.0
210
0.0
220
0.0
230
1.0
  0
SOLID
  5
334
330
32E
100
AcDbEntity
  8
HATCH
  6
CONTINUOUS
 62
     1
100
AcDbTrace
 10
1779.829281662501
 20
2096.136017294236
 30
0.0
 11
1744.845023552414
 21
2033.444463067664
 31
0.0
 12
1780.110212064571
 22
1910.740737887805
 32
0.0
 13
1780.110212064571
 23
1910.740737887805
 33
0.0
210
0.0
220
0.0
230
1.0
  0
ENDBLK
  5
336
330
32E
100
AcDbEntity
  8
0
100
AcDbBlockEnd
  0
BLOCK
  5
346
330
337
100
AcDbEntity
  8
0
100
AcDbBlockBegin
  2
*U4
 70
     1
 10
0.0
 20
0.0
 30
0.0
  3
*U4
  1

  0
SOLID
  5
338
330
337
100
AcDbEntity
  8
HATCH
  6
CONTINUOUS
 62
     5
100
AcDbTrace
 10
2270.824529545147
 20
1987.437639889266
 30
0.0
 11
2241.862770895049
 21
1966.898417733187
 31
0.0
 12
2270.85558616025
 22
1966.942350692406
 32
0.0
 13
2270.85558616025
 23
1966.942350692406
 33
0.0
210
0.0
220
0.0
230
1.0
  0
SOLID
  5
339
330
337
100
AcDbEntity
  8
HATCH
  6
CONTINUOUS
 62
     5
100
AcDbTrace
 10
2292.5297428841
 20
1993.498572599331
 30
0.0
 11
2270.824529545147
 21
1987.437639889266
 31
0.0
 12
2292.538877186624
 22
1987.470543749781
 32
0.0
 13
2292.538877186624
 23
1987.470543749781
 33
0.0
210
0.0
220
0.0
230
1.0
  0
SOLID
  5
33A
330
337
100
AcDbEntity
  8
HATCH
  6
CONTINUOUS
 62
     5
100
AcDbTrace
 10
2398.688748566784
 20
2014.154748603103
 30
0.0
 11
2292.5297428841
 21
1993.498572599331
 31
0.0
 12
2398.688748566783
 22
1993.659435876134
 32
0.0
 13
2398.688748566783
 23
1993.659435876134
 33
0.0
210
0.0
220
0.0
230
1.0
  0
SOLID
  5
33B
330
337
100
AcDbEntity
  8
HATCH
  6
CONTINUOUS
 62
     5
100
AcDbTrace
 10
2292.5297428841
 20
1993.498572599331
 30
0.0
 11
2398.688748566784
 21
2014.154748603103
 31
0.0
 12
2292.529621005703
 22
2014.154748603103
 32
0.0
 13
2292.529621005703
 23
2014.154748603103
 33
0.0
210
0.0
220
0.0
230
1.0
  0
SOLID
  5
33C
330
337
100
AcDbEntity
  8
HATCH
  6
CONTINUOUS
 62
     5
100
AcDbTrace
 10
2292.529621005703
 20
2014.154748603103
 30
0.0
 11
2270.824529545147
 21
1987.437639889266
 31
0.0
 12
2292.5297428841
 22
1993.498572599331
 32
0.0
 13
2292.5297428841
 23
1993.498572599331
 33
0.0
210
0.0
220
0.0
230
1.0
  0
SOLID
  5
33D
330
337
100
AcDbEntity
  8
HATCH
  6
CONTINUOUS
 62
     5
100
AcDbTrace
 10
2292.529621005703
 20
2014.154748603103
 30
0.0
 11
2241.862770895049
 21
1966.898417733187
 31
0.0
 12
2270.824529545147
 22
1987.437639889266
 32
0.0
 13
2270.824529545147
 23
1987.437639889266
 33
0.0
210
0.0
220
0.0
230
1.0
  0
SOLID
  5
33E
330
337
100
AcDbEntity
  8
HATCH
  6
CONTINUOUS
 62
     5
100
AcDbTrace
 10
1730.368784782663
 20
2014.154748603103
 30
0.0
 11
1630.241416167384
 21
1992.646728426499
 31
0.0
 12
1730.369552062573
 22
1992.646728426499
 32
0.0
 13
1730.369552062573
 23
1992.646728426499
 33
0.0
210
0.0
220
0.0
230
1.0
  0
SOLID
  5
33F
330
337
100
AcDbEntity
  8
HATCH
  6
CONTINUOUS
 62
     5
100
AcDbTrace
 10
1630.241416167383
 20
2014.154748603103
 30
0.0
 11
1630.241416167384
 21
1992.646728426499
 31
0.0
 12
1730.368784782663
 22
2014.154748603103
 32
0.0
 13
1730.368784782663
 23
2014.154748603103
 33
0.0
210
0.0
220
0.0
230
1.0
  0
SOLID
  5
340
330
337
100
AcDbEntity
  8
HATCH
  6
CONTINUOUS
 62
     5
100
AcDbTrace
 10
2292.529621005702
 20
2020.182784373277
 30
0.0
 11
2241.862770895049
 21
1966.898417733187
 31
0.0
 12
2292.529621005703
 22
2014.154748603103
 32
0.0
 13
2292.529621005703
 23
2014.154748603103
 33
0.0
210
0.0
220
0.0
230
1.0
  0
SOLID
  5
341
330
337
100
AcDbEntity
  8
HATCH
  6
CONTINUOUS
 62
     5
100
AcDbTrace
 10
2270.815248434553
 20
2020.182784373278
 30
0.0
 11
2241.862770895049
 21
1966.898417733187
 31
0.0
 12
2292.529621005702
 22
2020.182784373277
 32
0.0
 13
2292.529621005702
 23
2020.182784373277
 33
0.0
210
0.0
220
0.0
230
1.0
  0
SOLID
  5
342
330
337
100
AcDbEntity
  8
HATCH
  6
CONTINUOUS
 62
     5
100
AcDbTrace
 10
1814.813539772589
 20
2037.061275638139
 30
0.0
 11
1814.848920439894
 21
1969.86818710611
 31
0.0
 12
1826.91243889821
 22
1969.886467016481
 32
0.0
 13
1826.91243889821
 23
1969.886467016481
 33
0.0
210
0.0
220
0.0
230
1.0
  0
SOLID
  5
343
330
337
100
AcDbEntity
  8
HATCH
  6
CONTINUOUS
 62
     5
100
AcDbTrace
 10
1826.877072080715
 20
2037.06127563814
 30
0.0
 11
1814.813539772589
 21
2037.061275638139
 31
0.0
 12
1826.91243889821
 22
1969.886467016481
 32
0.0
 13
1826.91243889821
 23
1969.886467016481
 33
0.0
210
0.0
220
0.0
230
1.0
  0
SOLID
  5
344
330
337
100
AcDbEntity
  8
HATCH
  6
CONTINUOUS
 62
     5
100
AcDbTrace
 10
2241.862770895049
 20
2040.678097100247
 30
0.0
 11
2241.862770895049
 21
1966.898417733187
 31
0.0
 12
2270.815248434553
 22
2020.182784373278
 32
0.0
 13
2270.815248434553
 23
2020.182784373278
 33
0.0
210
0.0
220
0.0
230
1.0
  0
SOLID
  5
345
330
337
100
AcDbEntity
  8
HATCH
  6
CONTINUOUS
 62
     5
100
AcDbTrace
 10
2270.815248434553
 20
2040.678097100247
 30
0.0
 11
2241.862770895049
 21
2040.678097100247
 31
0.0
 12
2270.815248434553
 22
2020.182784373278
 32
0.0
 13
2270.815248434553
 23
2020.182784373278
 33
0.0
210
0.0
220
0.0
230
1.0
  0
ENDBLK
  5
347
330
337
100
AcDbEntity
  8
0
100
AcDbBlockEnd
  0
BLOCK
  5
377
330
348
100
AcDbEntity
  8
0
100
AcDbBlockBegin
  2
*U5
 70
     1
 10
0.0
 20
0.0
 30
0.0
  3
*U5
  1

  0
SOLID
  5
349
330
348
100
AcDbEntity
  8
HATCH
  6
CONTINUOUS
 62
   251
100
AcDbTrace
 10
2187.88090428546
 20
1853.489442826161
 30
0.0
 11
2092.492929312343
 21
1853.396222222243
 31
0.0
 12
2093.397719034879
 22
1853.346271978952
 32
0.0
 13
2093.397719034879
 23
1853.346271978952
 33
0.0
210
0.0
220
0.0
230
1.0
  0
SOLID
  5
34A
330
348
100
AcDbEntity
  8
HATCH
  6
CONTINUOUS
 62
   251
100
AcDbTrace
 10
2091.599592782766
 20
1853.548173904478
 30
0.0
 11
2092.492929312343
 21
1853.396222222243
 31
0.0
 12
2187.88090428546
 22
1853.489442826161
 32
0.0
 13
2187.88090428546
 23
1853.489442826161
 33
0.0
210
0.0
220
0.0
230
1.0
  0
SOLID
  5
34B
330
348
100
AcDbEntity
  8
HATCH
  6
CONTINUOUS
 62
   251
100
AcDbTrace
 10
2191.107267276688
 20
1854.174229461271
 30
0.0
 11
2091.599592782766
 21
1853.548173904478
 31
0.0
 12
2187.88090428546
 22
1853.489442826161
 32
0.0
 13
2187.88090428546
 23
1853.489442826161
 33
0.0
  0
SOLID
  5
34C
330
348
100
AcDbEntity
  8
HATCH
  6
CONTINUOUS
 62
   251
100
AcDbTrace
 10
2193.783171194242
 20
1856.102412313287
 30
0.0
 11
2091.599592782766
 21
1853.548173904478
 31
0.0
 12
2191.107267276688
 22
1854.174229461271
 32
0.0
 13
2191.107267276688
 23
1854.174229461271
 33
0.0
210
0.0
220
0.0
230
1.0
  0
SOLID
  5
34D
330
348
100
AcDbEntity
  8
HATCH
  6
CONTINUOUS
 62
   251
100
AcDbTrace
 10
1998.358795041705
 20
1874.903203813291
 30
0.0
 11
2091.599592782766
 21
1853.548173904478
 31
0.0
 12
2193.783171194242
 22
1856.102412313287
 32
0.0
 13
2193.783171194242
 23
1856.102412313287
 33
0.0
210
0.0
220
0.0
230
1.0
  0
SOLID
  5
34E
330
348
100
AcDbEntity
  8
HATCH
  6
CONTINUOUS
 62
   251
100
AcDbTrace
 10
1976.445747456886
 20
1900.182965267148
 30
0.0
 11
1998.358795041705
 21
1874.903203813291
 31
0.0
 12
2193.783171194242
 22
1856.102412313287
 32
0.0
 13
2193.783171194242
 23
1856.102412313287
 33
0.0
210
0.0
220
0.0
230
1.0
  0
SOLID
  5
34F
330
348
100
AcDbEntity
  8
HATCH
  6
CONTINUOUS
 62
   251
100
AcDbTrace
 10
1975.300898177332
 20
1901.266595800413
 30
0.0
 11
1976.445747456886
 21
1900.182965267148
 31
0.0
 12
2193.783171194242
 22
1856.102412313287
 32
0.0
 13
2193.783171194242
 23
1856.102412313287
 33
0.0
210
0.0
220
0.0
230
1.0
  0
SOLID
  5
350
330
348
100
AcDbEntity
  8
HATCH
  6
CONTINUOUS
 62
   251
100
AcDbTrace
 10
1973.965788322671
 20
1902.104698826007
 30
0.0
 11
1975.300898177332
 21
1901.266595800413
 31
0.0
 12
2193.783171194242
 22
1856.102412313287
 32
0.0
 13
2193.783171194242
 23
1856.102412313287
 33
0.0
210
0.0
220
0.0
230
1.0
  0
SOLID
  5
351
330
348
100
AcDbEntity
  8
HATCH
  6
CONTINUOUS
 62
   251
100
AcDbTrace
 10
2239.900525852041
 20
1906.734472952084
 30
0.0
 11
1973.965788322671
 21
1902.104698826007
 31
0.0
 12
2193.783171194242
 22
1856.102412313287
 32
0.0
 13
2193.783171194242
 23
1856.102412313287
 33
0.0
210
0.0
220
0.0
230
1.0
  0
SOLID
  5
352
330
348
100
AcDbEntity
  8
HATCH
  6
CONTINUOUS
 62
   251
100
AcDbTrace
 10
2241.448721998087
 20
1909.23881879832
 30
0.0
 11
1973.965788322671
 21
1902.104698826007
 31
0.0
 12
2239.900525852041
 22
1906.734472952084
 32
0.0
 13
2239.900525852041
 23
1906.734472952084
 33
0.0
210
0.0
220
0.0
230
1.0
  0
SOLID
  5
353
330
348
100
AcDbEntity
  8
HATCH
  6
CONTINUOUS
 62
   251
100
AcDbTrace
 10
2241.986127332243
 20
1912.133616706813
 30
0.0
 11
1973.965788322671
 21
1902.104698826007
 31
0.0
 12
2241.448721998087
 22
1909.23881879832
 32
0.0
 13
2241.448721998087
 23
1909.23881879832
 33
0.0
210
0.0
220
0.0
230
1.0
  0
SOLID
  5
354
330
348
100
AcDbEntity
  8
HATCH
  6
CONTINUOUS
 62
   251
100
AcDbTrace
 10
1923.712707620166
 20
1927.120602307365
 30
0.0
 11
1973.965788322671
 21
1902.104698826007
 31
0.0
 12
2241.986127332243
 22
1912.133616706813
 32
0.0
 13
2241.986127332243
 23
1912.133616706813
 33
0.0
  0
SOLID
  5
355
330
348
100
AcDbEntity
  8
HATCH
  6
CONTINUOUS
 62
   251
100
AcDbTrace
 10
1922.236730213755
 20
1927.681298676005
 30
0.0
 11
1923.712707620166
 21
1927.120602307365
 31
0.0
 12
2241.986127332243
 22
1912.133616706813
 32
0.0
 13
2241.986127332243
 23
1912.133616706813
 33
0.0
210
0.0
220
0.0
230
1.0
  0
SOLID
  5
356
330
348
100
AcDbEntity
  8
HATCH
  6
CONTINUOUS
 62
   251
100
AcDbTrace
 10
1920.679378964182
 20
1927.941196362598
 30
0.0
 11
1922.236730213755
 21
1927.681298676005
 31
0.0
 12
2241.986127332243
 22
1912.133616706813
 32
0.0
 13
2241.986127332243
 23
1912.133616706813
 33
0.0
210
0.0
220
0.0
230
1.0
  0
SOLID
  5
357
330
348
100
AcDbEntity
  8
HATCH
  6
CONTINUOUS
 62
   251
100
AcDbTrace
 10
1869.193234649736
 20
1931.371070990029
 30
0.0
 11
1920.679378964182
 21
1927.941196362598
 31
0.0
 12
2241.986127332243
 22
1912.133616706813
 32
0.0
 13
2241.986127332243
 23
1912.133616706813
 33
0.0
210
0.0
220
0.0
230
1.0
  0
SOLID
  5
358
330
348
100
AcDbEntity
  8
HATCH
  6
CONTINUOUS
 62
   251
100
AcDbTrace
 10
1838.390154357687
 20
1945.606956811649
 30
0.0
 11
1869.193234649736
 21
1931.371070990029
 31
0.0
 12
2241.986127332243
 22
1912.133616706813
 32
0.0
 13
2241.986127332243
 23
1912.133616706813
 33
0.0
210
0.0
220
0.0
230
1.0
  0
SOLID
  5
359
330
348
100
AcDbEntity
  8
HATCH
  6
CONTINUOUS
 62
   251
100
AcDbTrace
 10
1835.872638732805
 20
1947.437549476298
 30
0.0
 11
1838.390154357687
 21
1945.606956811649
 31
0.0
 12
2241.986127332243
 22
1912.133616706813
 32
0.0
 13
2241.986127332243
 23
1912.133616706813
 33
0.0
210
0.0
220
0.0
230
1.0
  0
SOLID
  5
35A
330
348
100
AcDbEntity
  8
HATCH
  6
CONTINUOUS
 62
   251
100
AcDbTrace
 10
1834.244340341413
 20
1950.090396771938
 30
0.0
 11
1835.872638732805
 21
1947.437549476298
 31
0.0
 12
2241.986127332243
 22
1912.133616706813
 32
0.0
 13
2241.986127332243
 23
1912.133616706813
 33
0.0
210
0.0
220
0.0
230
1.0
  0
SOLID
  5
35B
330
348
100
AcDbEntity
  8
HATCH
  6
CONTINUOUS
 62
   251
100
AcDbTrace
 10
2241.9026797651
 20
1967.203430839395
 30
0.0
 11
1834.244340341413
 21
1950.090396771938
 31
0.0
 12
2241.986127332243
 22
1912.133616706813
 32
0.0
 13
2241.986127332243
 23
1912.133616706813
 33
0.0
210
0.0
220
0.0
230
1.0
  0
SOLID
  5
35C
330
348
100
AcDbEntity
  8
HATCH
  6
CONTINUOUS
 62
   251
100
AcDbTrace
 10
2241.872849694766
 20
1967.299289937138
 30
0.0
 11
1834.244340341413
 21
1950.090396771938
 31
0.0
 12
2241.9026797651
 22
1967.203430839395
 32
0.0
 13
2241.9026797651
 23
1967.203430839395
 33
0.0
210
0.0
220
0.0
230
1.0
  0
SOLID
  5
35D
330
348
100
AcDbEntity
  8
HATCH
  6
CONTINUOUS
 62
   251
100
AcDbTrace
 10
2241.862770895049
 20
1967.399175959747
 30
0.0
 11
1834.244340341413
 21
1950.090396771938
 31
0.0
 12
2241.872849694766
 22
1967.299289937138
 32
0.0
 13
2241.872849694766
 23
1967.299289937138
 33
0.0
210
0.0
220
0.0
230
1.0
  0
SOLID
  5
35E
330
348
100
AcDbEntity
  8
HATCH
  6
CONTINUOUS
 62
   251
100
AcDbTrace
 10
1826.91243889821
 20
1969.886467016481
 30
0.0
 11
1834.244340341413
 21
1950.090396771938
 31
0.0
 12
2241.862770895049
 22
1967.399175959747
 32
0.0
 13
2241.862770895049
 23
1967.399175959747
 33
0.0
210
0.0
220
0.0
230
1.0
  0
SOLID
  5
35F
330
348
100
AcDbEntity
  8
HATCH
  6
CONTINUOUS
 62
   251
100
AcDbTrace
 10
1826.877072080714
 20
2037.061275638139
 30
0.0
 11
1826.91243889821
 21
1969.886467016481
 31
0.0
 12
2241.862770895049
 22
1967.399175959747
 32
0.0
 13
2241.862770895049
 23
1967.399175959747
 33
0.0
210
0.0
220
0.0
230
1.0
  0
SOLID
  5
360
330
348
100
AcDbEntity
  8
HATCH
  6
CONTINUOUS
 62
   251
100
AcDbTrace
 10
2241.862770895049
 20
2040.678097100247
 30
0.0
 11
1826.877072080714
 21
2037.061275638139
 31
0.0
 12
2241.862770895049
 22
1967.399175959747
 32
0.0
 13
2241.862770895049
 23
1967.399175959747
 33
0.0
  0
SOLID
  5
361
330
348
100
AcDbEntity
  8
HATCH
  6
CONTINUOUS
 62
   251
100
AcDbTrace
 10
1834.178968055712
 20
2056.868433209845
 30
0.0
 11
1826.877072080714
 21
2037.061275638139
 31
0.0
 12
2241.862770895049
 22
2040.678097100247
 32
0.0
 13
2241.862770895049
 23
2040.678097100247
 33
0.0
210
0.0
220
0.0
230
1.0
  0
SOLID
  5
362
330
348
100
AcDbEntity
  8
HATCH
  6
CONTINUOUS
 62
   251
100
AcDbTrace
 10
1835.803244709426
 20
2059.523744825753
 30
0.0
 11
1834.178968055712
 21
2056.868433209845
 31
0.0
 12
2241.862770895049
 22
2040.678097100247
 32
0.0
 13
2241.862770895049
 23
2040.678097100247
 33
0.0
210
0.0
220
0.0
230
1.0
  0
SOLID
  5
363
330
348
100
AcDbEntity
  8
HATCH
  6
CONTINUOUS
 62
   251
100
AcDbTrace
 10
1838.317983540902
 20
2061.358150188492
 30
0.0
 11
1835.803244709426
 21
2059.523744825753
 31
0.0
 12
2241.862770895049
 22
2040.678097100247
 32
0.0
 13
2241.862770895049
 23
2040.678097100247
 33
0.0
210
0.0
220
0.0
230
1.0
  0
SOLID
  5
364
330
348
100
AcDbEntity
  8
HATCH
  6
CONTINUOUS
 62
   251
100
AcDbTrace
 10
1867.754926042483
 20
2075.016835949299
 30
0.0
 11
1838.317983540902
 21
2061.358150188492
 31
0.0
 12
2241.862770895049
 22
2040.678097100247
 32
0.0
 13
2241.862770895049
 23
2040.678097100247
 33
0.0
210
0.0
220
0.0
230
1.0
  0
SOLID
  5
365
330
348
100
AcDbEntity
  8
HATCH
  6
CONTINUOUS
 62
   251
100
AcDbTrace
 10
1869.133304009186
 20
2075.508818306445
 30
0.0
 11
1867.754926042483
 21
2075.016835949299
 31
0.0
 12
2241.862770895049
 22
2040.678097100247
 32
0.0
 13
2241.862770895049
 23
2040.678097100247
 33
0.0
210
0.0
220
0.0
230
1.0
  0
SOLID
  5
366
330
348
100
AcDbEntity
  8
HATCH
  6
CONTINUOUS
 62
   251
100
AcDbTrace
 10
1870.578243616627
 20
2075.741459639151
 30
0.0
 11
1869.133304009186
 21
2075.508818306445
 31
0.0
 12
2241.862770895049
 22
2040.678097100247
 32
0.0
 13
2241.862770895049
 23
2040.678097100247
 33
0.0
210
0.0
220
0.0
230
1.0
  0
SOLID
  5
367
330
348
100
AcDbEntity
  8
HATCH
  6
CONTINUOUS
 62
   251
100
AcDbTrace
 10
1920.580344688181
 20
2079.148583489944
 30
0.0
 11
1870.578243616627
 21
2075.741459639151
 31
0.0
 12
2241.862770895049
 22
2040.678097100247
 32
0.0
 13
2241.862770895049
 23
2040.678097100247
 33
0.0
210
0.0
220
0.0
230
1.0
  0
SOLID
  5
368
330
348
100
AcDbEntity
  8
HATCH
  6
CONTINUOUS
 62
   251
100
AcDbTrace
 10
1922.137300325976
 20
2079.410840737649
 30
0.0
 11
1920.580344688181
 21
2079.148583489944
 31
0.0
 12
2241.862770895049
 22
2040.678097100247
 32
0.0
 13
2241.862770895049
 23
2040.678097100247
 33
0.0
210
0.0
220
0.0
230
1.0
  0
SOLID
  5
369
330
348
100
AcDbEntity
  8
HATCH
  6
CONTINUOUS
 62
   251
100
AcDbTrace
 10
1923.612426412796
 20
2079.97377301601
 30
0.0
 11
1922.137300325976
 21
2079.410840737649
 31
0.0
 12
2241.862770895049
 22
2040.678097100247
 32
0.0
 13
2241.862770895049
 23
2040.678097100247
 33
0.0
210
0.0
220
0.0
230
1.0
  0
SOLID
  5
36A
330
348
100
AcDbEntity
  8
HATCH
  6
CONTINUOUS
 62
   251
100
AcDbTrace
 10
2241.862770895049
 20
2095.443022175069
 30
0.0
 11
1923.612426412796
 21
2079.97377301601
 31
0.0
 12
2241.862770895049
 22
2040.678097100247
 32
0.0
 13
2241.862770895049
 23
2040.678097100247
 33
0.0
210
0.0
220
0.0
230
1.0
  0
SOLID
  5
36B
330
348
100
AcDbEntity
  8
HATCH
  6
CONTINUOUS
 62
   251
100
AcDbTrace
 10
2241.320979681038
 20
2098.337002428044
 30
0.0
 11
1923.612426412796
 21
2079.97377301601
 31
0.0
 12
2241.862770895049
 22
2095.443022175069
 32
0.0
 13
2241.862770895049
 23
2095.443022175069
 33
0.0
210
0.0
220
0.0
230
1.0
  0
SOLID
  5
36C
330
348
100
AcDbEntity
  8
HATCH
  6
CONTINUOUS
 62
   251
100
AcDbTrace
 10
2239.768990468897
 20
2100.838999412374
 30
0.0
 11
1923.612426412796
 21
2079.97377301601
 31
0.0
 12
2241.320979681038
 22
2098.337002428044
 32
0.0
 13
2241.320979681038
 23
2098.337002428044
 33
0.0
210
0.0
220
0.0
230
1.0
  0
SOLID
  5
36D
330
348
100
AcDbEntity
  8
HATCH
  6
CONTINUOUS
 62
   251
100
AcDbTrace
 10
1973.827542739919
 20
2105.06579643654
 30
0.0
 11
1923.612426412796
 21
2079.97377301601
 31
0.0
 12
2239.768990468897
 22
2100.838999412374
 32
0.0
 13
2239.768990468897
 23
2100.838999412374
 33
0.0
  0
SOLID
  5
36E
330
348
100
AcDbEntity
  8
HATCH
  6
CONTINUOUS
 62
   251
100
AcDbTrace
 10
1975.161381081496
 20
2105.905921596308
 30
0.0
 11
1973.827542739919
 21
2105.06579643654
 31
0.0
 12
2239.768990468897
 22
2100.838999412374
 32
0.0
 13
2239.768990468897
 23
2100.838999412374
 33
0.0
210
0.0
220
0.0
230
1.0
  0
SOLID
  5
36F
330
348
100
AcDbEntity
  8
HATCH
  6
CONTINUOUS
 62
   251
100
AcDbTrace
 10
1976.304587017754
 20
2106.991285679387
 30
0.0
 11
1975.161381081496
 21
2105.905921596308
 31
0.0
 12
2239.768990468897
 22
2100.838999412374
 32
0.0
 13
2239.768990468897
 23
2100.838999412374
 33
0.0
210
0.0
220
0.0
230
1.0
  0
SOLID
  5
370
330
348
100
AcDbEntity
  8
HATCH
  6
CONTINUOUS
 62
   251
100
AcDbTrace
 10
1998.179302938718
 20
2132.304223023659
 30
0.0
 11
1976.304587017754
 21
2106.991285679387
 31
0.0
 12
2239.768990468897
 22
2100.838999412374
 32
0.0
 13
2239.768990468897
 23
2100.838999412374
 33
0.0
210
0.0
220
0.0
230
1.0
  0
SOLID
  5
371
330
348
100
AcDbEntity
  8
HATCH
  6
CONTINUOUS
 62
   251
100
AcDbTrace
 10
2193.57496582837
 20
2151.401120141969
 30
0.0
 11
1998.179302938718
 21
2132.304223023659
 31
0.0
 12
2239.768990468897
 22
2100.838999412374
 32
0.0
 13
2239.768990468897
 23
2100.838999412374
 33
0.0
210
0.0
220
0.0
230
1.0
  0
SOLID
  5
372
330
348
100
AcDbEntity
  8
HATCH
  6
CONTINUOUS
 62
   251
100
AcDbTrace
 10
2190.896143201101
 20
2153.325245974242
 30
0.0
 11
1998.179302938718
 21
2132.304223023659
 31
0.0
 12
2193.57496582837
 22
2151.401120141969
 32
0.0
 13
2193.57496582837
 23
2151.401120141969
 33
0.0
  0
SOLID
  5
373
330
348
100
AcDbEntity
  8
HATCH
  6
CONTINUOUS
 62
   251
100
AcDbTrace
 10
2091.387634285167
 20
2153.800516504279
 30
0.0
 11
1998.179302938718
 21
2132.304223023659
 31
0.0
 12
2190.896143201101
 22
2153.325245974242
 32
0.0
 13
2190.896143201101
 23
2153.325245974242
 33
0.0
210
0.0
220
0.0
230
1.0
  0
SOLID
  5
374
330
348
100
AcDbEntity
  8
HATCH
  6
CONTINUOUS
 62
   251
100
AcDbTrace
 10
2092.280739536246
 20
2153.953821687859
 30
0.0
 11
2091.387634285167
 21
2153.800516504279
 31
0.0
 12
2190.896143201101
 22
2153.325245974242
 32
0.0
 13
2190.896143201101
 23
2153.325245974242
 33
0.0
210
0.0
220
0.0
230
1.0
  0
SOLID
  5
375
330
348
100
AcDbEntity
  8
HATCH
  6
CONTINUOUS
 62
   251
100
AcDbTrace
 10
2093.185452530251
 20
2154.00514290466
 30
0.0
 11
2092.280739536246
 21
2153.953821687859
 31
0.0
 12
2190.896143201101
 22
2153.325245974242
 32
0.0
 13
2190.896143201101
 23
2153.325245974242
 33
0.0
210
0.0
220
0.0
230
1.0
  0
SOLID
  5
376
330
348
100
AcDbEntity
  8
HATCH
  6
CONTINUOUS
 62
   251
100
AcDbTrace
 10
2187.668746254521
 20
2154.005142904666
 30
0.0
 11
2093.185452530251
 21
2154.00514290466
 31
0.0
 12
2190.896143201101
 22
2153.325245974242
 32
0.0
 13
2190.896143201101
 23
2153.325245974242
 33
0.0
210
0.0
220
0.0
230
1.0
  0
ENDBLK
  5
378
330
348
100
AcDbEntity
  8
0
100
AcDbBlockEnd
  0
ENDSEC
  0
SECTION
  2
ENTITIES
  0
INSERT
  5
315
330
1F
100
AcDbEntity
  8
HATCH
100
AcDbBlockReference
  2
AAKK
 10
0.0
 20
0.0
 30
0.0
  0
ENDSEC
  0
SECTION
  2
OBJECTS
  0
DICTIONARY
  5
C
330
0
100
AcDbDictionary
  3
ACAD_GROUP
350
D
  3
ACAD_LAYOUT
350
1A
  3
ACAD_MLINESTYLE
350
17
  3
ACAD_PLOTSETTINGS
350
19
1001
ACAD
1000
TREAT_AS_HARD
1070
     0
1000
TREAT_AS_HARD
1070
     0
  0
DICTIONARY
  5
10B
330
1F
100
AcDbDictionary
  3
ACAD_LAYOUTSELFREF
350
317
  3
ACAD_SORTENTS
350
2C5
1001
ACAD
1000
TREAT_AS_HARD
1070
     1
1000
TREAT_AS_HARD
1070
     0
  0
DICTIONARY
  5
10D
330
50
100
AcDbDictionary
  3
ACAD_LAYOUTSELFREF
350
318
1001
ACAD
1000
TREAT_AS_HARD
1070
     1
1000
TREAT_AS_HARD
1070
     0
  0
DICTIONARY
  5
D
102
{ACAD_REACTORS
330
C
102
}
330
C
100
AcDbDictionary
1001
ACAD
1000
TREAT_AS_HARD
1070
     0
1000
TREAT_AS_HARD
1070
     0
  0
DICTIONARY
  5
1A
102
{ACAD_REACTORS
330
C
102
}
330
C
100
AcDbDictionary
1001
ACAD
1000
TREAT_AS_HARD
1070
     0
1000
TREAT_AS_HARD
1070
     0
  0
DICTIONARY
  5
17
102
{ACAD_REACTORS
330
C
102
}
330
C
100
AcDbDictionary
  3
STANDARD
350
18
1001
ACAD
1000
TREAT_AS_HARD
1070
     0
1000
TREAT_AS_HARD
1070
     0
  0
DICTIONARY
  5
19
102
{ACAD_REACTORS
330
C
102
}
330
C
100
AcDbDictionary
1001
ACAD
1000
TREAT_AS_HARD
1070
     0
1000
TREAT_AS_HARD
1070
     0
  0
XRECORD
  5
317
102
{ACAD_REACTORS
330
10B
102
}
330
10B
100
AcDbXrecord
340
1F
  0
SORTENTSTABLE
  5
2C5
102
{ACAD_REACTORS
330
10B
102
}
330
10B
100
AcDbSortentsTable
330
1F
331
24A
  5
24C
331
228
  5
22A
331
25B
  5
25D
331
239
  5
23B
331
248
  5
24A
331
259
  5
25B
331
237
  5
239
331
226
  5
228
331
257
  5
259
331
235
  5
237
331
27A
  5
18A
331
246
  5
248
331
224
  5
226
331
267
  5
27A
331
233
  5
235
331
244
  5
246
331
222
  5
224
331
265
  5
267
331
253
  5
256
331
231
  5
233
331
242
  5
244
331
263
  5
265
331
251
  5
253
331
22F
  5
231
331
240
  5
242
331
261
  5
263
331
24F
  5
251
331
22D
  5
22F
331
23E
  5
240
331
24D
  5
24F
331
22B
  5
22D
331
25E
  5
260
331
23C
  5
23E
331
24B
  5
24D
331
229
  5
22B
331
25C
  5
25E
331
23A
  5
23C
331
2A1
  5
222
331
249
  5
24B
331
25A
  5
25C
331
238
  5
23A
331
227
  5
229
331
28E
  5
221
331
258
  5
25A
331
236
  5
238
331
247
  5
249
331
225
  5
227
331
268
  5
28E
331
256
  5
258
331
234
  5
236
331
245
  5
247
331
223
  5
225
331
266
  5
268
331
254
  5
257
331
232
  5
234
331
243
  5
245
331
221
  5
2C4
331
264
  5
266
331
252
  5
254
331
230
  5
232
331
241
  5
243
331
262
  5
264
331
250
  5
252
331
22E
  5
230
331
23F
  5
241
331
260
  5
262
331
24E
  5
250
331
22C
  5
22E
331
25F
  5
261
331
23D
  5
23F
331
18A
  5
2A1
331
24C
  5
24E
331
22A
  5
22C
331
25D
  5
25F
331
23B
  5
23D
331
2C4
  5
223
  0
XRECORD
  5
318
102
{ACAD_REACTORS
330
10D
102
}
330
10D
100
AcDbXrecord
340
50
  0
MLINESTYLE
  5
18
102
{ACAD_REACTORS
330
17
102
}
330
17
100
AcDbMlineStyle
  2
STANDARD
 70
     0
  3

 62
   256
 51
90.0
 52
90.0
 71
     2
 49
0.5
 62
   256
  6
BYLAYER
 49
-0.5
 62
   256
  6
BYLAYER
  0
ENDSEC
  0
EOF
